ЗемфираСПИД Текст

0 Голосов
Intro: Fmaj7 E Am D }x2

Verse 1:
F E
Я сняла наушники, слушала ветер
Am D
В открытые двери пустой маршрутки.
F E
Ветер рассказал мне о страшном секрете,
Am D F G
Нам остаются последние сутки.

Chorus:
2|-8-8-6-6-5-53-3/5--3--1-

Припев:
C E Am
А у тебя СПИД, и значит, мы умрем.
G C E Am
У тебя СПИД, и значит, мы умрем.
G C E Am
Но у тебя СПИД, и значит, мы умрем.
G C E
У тебя, и значит, мы ...

Verse 2:
F E
Будем глотать в больнице лекарства,
Am D
Не думать про завтра, не включать телевизор,
F E
На карте искать тридесятое царство,
Am D F G
А вдруг повезет, и достанутся визы.

Припев:
C E Am
А у тебя СПИД, и значит, мы умрем.
G C E Am
У тебя СПИД, и значит, мы умрем.
G C E Am
Но у тебя СПИД, и значит, мы умрем.
G C E
У тебя, и значит, мы ...

Verse 3:
F E
Не рассчитались с долгами, свинтили.
Am D
До скорого, мама, ключи у соседки.
F E
Я дула на веки, пока не остыли,
Am D F G
И плакали ивы, и ставили метки.
Am D
А-а-a-a-a!
Am D G
Не видел ленивый в газете заметки, что

Chorus:
C E Am
А у тебя СПИД, и мы далеко.
G C E Am
Но у тебя СПИД, и мы далеко,
G C E Am
Но у тебя СПИД, и мы далеко,
G C E
Но у тебя, и значит мы ...

Solo: F E Am D }x3
F E Am G

1|-7--5-8-12-10--------------------
2|--5-------5---------------10-8-7-
3|------5-7------------------------

1|--10-8----5-3-----------------5-5-5---
2|--10-8----5-3--5-3------------5-5-5---
3-----------5-7--5----------7-5---------
4---------7---------------7------7-5/7--

2|-5---8-6-5----------------------------
3|-----4-5--7------------7--5-7-5-7-----
4|--7---------------------------------7-

1|---5--------------------------------------------
2|------8--5----5--------5---------------5-8-10-8-
3|-7-7^-5---5-7^-5--------5-7---------------------
4|-------7--------7--5-7--------------------------

Chorus

Ending:
2|-----/12-10--8--10-
3---------9-7-6~~~---
4|--12---------------
Другие песни: