Земфира-140 Текст

0 Голосов
Intro: Dm Gm A }x4
Dm Gm A
1|---4-5---8-6----------------------
2|---------5-6-8-----------5-8-6--5-
3|-----6-7--------------------------
4|---7------------------------------

Dm Gm A
1|----4-5-------------------------
2|----------5-6-8-------8-6---5---
3|------6-7-----------------7---6-
4|----7---------------------------

Verse 1:
Dm Gm C Dm
Странно - трамваи не ходят кругами
Gm C Bb
А только от края до края
Gm Dm A
Еще молодая весна пытает
Dm Gm C Dm
Мимо созвездий запруженных улиц
Gm C Bb
Но первые крылья вернулись
Gm Dm A
Еще не проснулись, а все туда же

Chorus:
Bb C
А в забытом тобою отрезке
Dm
Мне все было ново и все интересно
Gm A Dm A
И на забытой тобою фотке минус сто сорок
Bb C
А в забытом тобою отрезке
Dm
Мне все было ново и все интересно
Gm A Dm A
И на забытой тобою фотке минус сто сорок
A
Ужас

Verse 2:
Dm Gm C Dm
Помнишь? Да нет ни фига ты не помнишь
Gm C Bb
А мне то, не очень-то нужно
Gm Dm A
И только соплива и голос простужен
Dm Gm C Dm
Где-то ведь ходят по кругу трамваи
Gm C Bb
И мчатся созревшие стаи
Gm Dm A
И грузят мои винилы подростки

Chorus:
Bb C
А в забытом тобою отрезке
Dm
Мне все было ново и все интересно
Gm A Dm A
И на забытой тобою фотке минус сто сорок
Bb C
А в забытом тобою отрезке
Dm
Мне все было ново и все интересно
Gm A Dm A
И на забытой тобою фотке минус сто сорок
A
Ужас

Solo: Dm Gm A }x4

Verse 1:
Dm Gm C Dm
Странно - трамваи не ходят кругами
Gm C Bb
А только от края до края
Gm Dm A
Еще молодая весна пытает
Dm Gm C Dm
Мимо созвездий запруженных улиц
Gm C Bb
Но первые крылья вернулись
Gm Dm A
Еще не проснулись, а все туда же

Chorus: x2
Bb C
А в забытом тобою отрезке
Dm
Мне все было ново и все интересно
Gm A Dm A
И на забытой тобою фотке минус сто сорок
Bb C
А в забытом тобою отрезке
Dm
Мне все было ново и все интересно
Gm A Dm A
И на забытой тобою фотке минус сто сорок
A
Ужас

Outro = Intro: Dm Gm A }x4
Dm Gm A
1|---4-5---8-6----------------------
2|---------5-6-8-----------5-8-6--5-
3|-----6-7--------------------------
4|---7------------------------------

Dm Gm A
1|----4-5-------------------------
2|----------5-6-8-------8-6---5---
3|------6-7-----------------7---6-
4|----7---------------------------
Другие песни: