Zac Brown BandFree Текст

0 Голосов
Capo 1
Standard Tuning

E|------------------------------------------------|
B|------------------------------------------------|
G|-------0-----0---2-------------0-----0---2------|
D|--0h2-----2---------0-----0h2-----2---------0---|
A|--3---------------------3-----------------------|
E|------------------------------------------------|

E|---------------0---------------0h1p0-----0-------------------------|
B|-------1----------1-----1---------------------0h1p0---0h1----------|
G|--0h2-----2p0--------2-------------------------------------2-------|
D|--3-------------------------3---------3-----3-------3---------3p0--|
A|-------------------------------------------------------------------|
E|-------------------------------------------------------------------|
Другие песни: