Юрий ТитовПонарошку Текст, аккорды

0 Голосов
Вступление:
Em(VII) Am(V) B(VII)
e|---------------------------------------|
B|-----7-8-----7-8--------8-----------7--|
G|----------------------5----5------8----| x2
D|---9-------9---------------------------|
A|-7-------7----------7-----------9------|
E|------------------5-----------7--------|

Куплет 1: (играется следующим перебором)
e|---------------------------------------|
B|-----7-8-----7-8--------8-----------7--|
G|----------------------5----5------8----| x2
D|---9-------9---------------------------|
A|-7-------7----------7-----------9------|
E|------------------5-----------7--------|

Em(VII) C(III) Am(V) B(VII) C(V) B(VII)
e|---------------------------------------------------------|
B|-----7-8-----3-5-------8-------7-----3-5-----3-3-------7-|
G|---------------------5-------8-----------------------8---|
D|---9-------5-----------------------5-------5-------------|
A|-7-------3---------7-------9-----3-------3---------9-----|
E|-----------------5-------7-----------------------7-------|

Em Am B
В пустоте слышу слова и звуки
Em Am B
Так хочу губы твои и руки
Em C Am B C B
Ну зачем этот маршрут мне в сердце, я знал

Припев:
Em Am D G
Все о любви и мне так обидно
C Am B
Просто в глазах твоих слез не видно
Em Am D G
Наши пути ищу на ладошке
C Am B
Это любовь была понарошку

Куплет 2: (играется боем)
Em Am B
Ты не спишь, в сердце молчать не можешь
Em Am B
Заново точки любви не сложишь
Em C Am B C B
Ну зачем медленный дождь мне в слезы, я знал

Припев:
Em Am D G
Все о любви и мне так обидно
C Am B
Просто в глазах твоих слез не видно
Em Am D G
Наши пути ищу на ладошке
C Am B
Это любовь была понарошку

Em Am D G
Все о любви и мне так обидно
C Am B
Просто в глазах твоих слез не видно

Em Am D G
Все о любви и мне так обидно
C Am B
Просто в глазах твоих слез не видно
Em Am D G
Наши пути ищу на ладошке
C Am B
Это любовь была понарошку
Em
Все о любви
Em
Все о любви
Другие песни: