Юрий ШевчукМетель Августа (Новое сердце) Текст, аккорды

0 Голосов
Вступление:
E|-------------------------------------------------|
B|---2-3-2-3-0---0-2-0-2-0---0-2-0-2-0---3-3-3-2-0-|
G|---4-4-4-4-0---0-0-0-0-0---0-0-0-0-0---0-0-0-0-0-| x2
D|-------------------------------------------------|
A|-2-----------------------------------------------|
E|-------------3-----------0-----------0-----------|

D F# G
E|---------2--------------2--------------0---------------------|
B|-------3---3----------2---2--------2-3---3-2-----------3-2-0-|
G|-----2-------2------3-------3------------------------0-------|
D|---0-----------------------------------------------0---------|
A|---------------------------------2---------------------------|
E|------------------2------------------------------3-----------|
Небо звездное, метель августа, на дороге машин - канителица

D F#
E|-------2--------------2--------------------------------------|
B|-----3---3----------2---2--------2-3-2-3-0-------0-2-0-2-----|
G|---2-------2------3-------3------------------------------2---|
D|-0-----------------------------------------------------------|
A|-------------------------------2-----------------------------|
E|----------------2------------------------------3-------------|
Возят засуху, а мне радостно - знаю точно, погода изменится.


D F# Bm G
Я смотрю наверх, там, где мы живем,
D F# Bm G
Так все тихо, сухо, да правильно.
D F# Bm G
Я ж из тех, кому нет победы днем,
D F# Bm G
Я как степь дышу сном неправедным.

D F# Bm G
Я по засухе ведро полное,
D F# Bm G
Между фар лисой, живьем пламени.
D F# Bm G
Я так мал, а вокруг все огромное,
D F# Bm G
И плевать, что ни ружья, да ни знамени.

D F# Bm G
Небо звездное, сердце августа,
D F# Bm G
Оглянись, расцветает пророчество,
D F# Bm G
Тело - степь, мое, одиночество,
D F# Bm G
Смерти нет, но всегда пожалуйста,

D F# Bm G
Новое сердце взорвется над вами,
D F# Bm G
Новая жизнь позовет за собой,
D F# Bm G
И освященный седыми богами,
D F# Bm E
Я как на праздник пойду за тобой.

D F# Bm G
Небо звездное - руки августа,
D F# Bm G
На дороге машин канителица,
D F# Bm G
Что пожнем, когда пыль рассеется,
D F# Bm G
Степь красна как чернила Фауста,

D F# Bm G
Ночь светла как круги от времени,
D F# Bm G
Что забросил я в смерть уставшую.
D F# Bm G
Все дороги растут из семени,
D F# Bm G
Не дошедшего, да не доставшего.

D F# Bm G
Жду от нового века белого,
D F# Bm G
Продолжения понимания,
D F# Bm G
Что мы часть всего безответного,
D F# Bm G
Что мы ночь всего ожидания,

D F# Bm G
Новое сердце взорвется над вами,
D F# Bm G
Новая жизнь позовет за собой,
D F# Bm G
И освященный седыми богами,
D F# Bm G
Я как на праздник пойду за тобой.

D F# Bm G
Новое сердце взорвется над вами,
D F# Bm G
Новая жизнь позовет за собой,
D F# Bm G
И освященный седыми богами,
D F# Bm G
Я как на праздник пойду в этот бой.
Другие песни: