Ю-ПитерЭхолов Текст, аккорды

0 Голосов
Вступление: x2
Am Em
E|-8-8-8--7--5--|-8-8-8--7--5--|-7-7-7--7--7--|-7-7-7--7--7--|
B|-5-5-5--5--5--|-5-5-5--5--5--|-8-8-8--10-8--|-8-8-8--10-8--|
G|-5-5-5--5--5--|-5-5-5--5--5--|-9-9-9--9--9--|-9-9-9--9--9--|
D|--------------|--------------|--------------|--------------|
A|--------------|--------------|--------------|--------------|
E|--------------|--------------|--------------|--------------|

F#m7-5 Em
E|-5-5-5--3--5--|-5-5-5--3--5--|-3-3-3--2--3--|-3-3-3--2--3--|
B|-5-5-5--5--5--|-5-5-5--5--5--|-5-5-5--5--5--|-5-5-5--5--5--|
G|-5-5-5--5--5--|-5-5-5--5--5--|-4-4-4--4--4--|-4-4-4--4--4--|
D|--------------|--------------|--------------|--------------|
A|--------------|--------------|--------------|--------------|
E|--------------|--------------|--------------|--------------|

Em C Am B
Где бы ты ни был - тебя я узнаю,
Em C Am B
И в новое небо себя провожая,
Am Am7 C B
Сердце железное в ход запускаю
Am C B
И вижу на небе невидимую.

Em C Am B
Мне бы на миг от земли оторваться,
Em C Am B
В силы небесные раньше вмешаться
Am Am7 C B
И попросить не теряться на небе -
Am C B
Я отыщу тебя, где бы ты не был.

Am Em
И не будет другой войны
F#m7-5 Em (022003)
Кроме этой пустой вины.
Am Em
В жизни есть только два пути,
F#m7-5 Em (022003)
В смерти нет даже пропасти.

Am Em F#m7-5 Em
E|-------------|-----------|-------------|-----------|
B|-------------|-----------|-------------|-----------|
G|-------------|-----------|-------------|-----------|
D|-----9--7----|-----9-----|-----4--2--1-|-2---5-----|
A|---7-------9-|-10-----7--|---0---------|--------2--|
E|-8-----------|-----------|-2-----------|-----------|

Am Em F#m7-5 Em
E|-------------|-----------|-------------|-----------|
B|-------------|-----------|-------------|-----------|
G|-------------|-----------|-------------|-----------|
D|-----9--7----|-----9-----|-----4--2--1-|-----------|
A|---7-------9-|-10-----7--|---3---------|-2---------|
E|-8-----------|-----------|-2-----------|-----------|


Em C Am B
Если б взлететь хоть на миг над землею
Em C Am B
Между заботой и между тобой,
Am Am7 C B
Вышвырнуть в дыры ненужное семя,
Am C B
На время забыть и не помнить про время.

Am Em
Слева мчится змея дуга,
F#m7-5 Em (022003)
Справа метит в меня орлица,
Am Em
Снизу корчатся сбитые
F#m7-5 Em (022003)
Сверх верхов светлоликие.

Am Am7 C B
Если б взлететь хоть на миг над землею
Am C B
Между заботой и между тобой...

Am Em
И не будет другой войны
F#m7-5 Em (022003)
Кроме этой пустой вины.
Am Em
В жизни есть только два пути,
F#m7-5 Em (022003)
В смерти нет даже пропасти.

Am Em
Слева мчится змея дуга,
F#m7-5 Em (022003)
Справа метит в меня орлица,
Am Em
Снизу корчатся сбитые
F#m7-5 Em (022003)
Сверх верхов светлоликие.
Другие песни: