White StripesI Think I Smell A Rat Текст

0 Голосов
-----------------------------------------------------------------

The White Stripes - I Think I Smell A Rat
from their album White Blood Cells
-----------------------------------------------------------------
Tabbed by: Shortys99887
Email: shortys99887@hotmail.com

Tuning: Standard [EADGBe]

Intro:
e|5-7-8-7-5-3-5-----------5-7-8-7-5-3-5------------0-1-3-1-0---3-----------|
B|-----------------------------------------------------------3-------------|
G|--------------2-2-2-------------------2-2-2----------------------------2-|
D|--------------2-2-2-5-7---------------2-2-2-5-2----------------2-2-2-5-0-|
A|--------------0-0-0-5-7---------------0-0-0-5-2----------------2-2-2-5-0-|
E|--------------------3-5---------------------3-0----------------0-0-0-3-0-|

e|5-7-8-7-5-3-5-----------------------------------------------------------|
B|------------------------------------------------------------------------|
G|--------------2-2-2---2~------------------------------------------------|
D|--------------2-2-2-5-2~-2~---------------------------------------------|
A|--------------0-0-0-5-0~-2~---------------------------------------------|
E|-------------------------0~---------------------------------------------|

Chorus:

Oh, I Think I Smell A Rat

e|---------------------------------------------------------------------|
B|---------------------------------------------------------------------|
G|---22-2--22-2--22-2--22-2--22-2--22-2--------------------------------|
D|---22-2--22-2--22-2--22-2--22-2--22-2--2~--5-2-----------------------|x2
A|---00-0--00-0--00-0--00-0--00-0--00-0--2~--5-2-----------------------|
E|---------------------------------------0~--3-0~----------------------|
^This part is only played live
e|---------------------------------------------------------------------|
B|---------------------------------------------------------------------|
G|---22-2--22-2--22-2--22-2--------------------------------------------|
D|---22-2--22-2--22-2--22-2--------------------------------------------|
A|---00-0--00-0--00-0--00-0--------------------------------------------|
E|---------------------------------------------------------------------|

Back to intro..

Just play everything twice

Listen to the song for correct timing.

Questions? Comments? Corrections?
Please feel free to e-mail me at Shortys99887@hotmail.com
Другие песни: