White StripesI Just Dont Know What To Do With Myself Текст, аккорды

0 Голосов
this song is a bit of an improvement on the other tabs on this site.


the white stripes: i just don't know what to do with myself

tabbed by adam

Intro

---3------3------0---0---0-------3-----------------------
---3------3------1---1---1-------3-----------------------
---0------0------0---0---0-------0-----------------------
---0------0------2---2---2-------0------0---0------------
---2------2------3---3---3-------2---------------3---2---
---3------3------0---0---0-------3-----------------------


G C G(1 strum) G (2 strums)
I just don't know what to do with myself
G C G (1 strum) G (2 strums)
I don't know what to do with myself


Am (2 strums) F (1 strum) -----------
planning everything for two
Am (2 strums) F (1 strum) --------- slightly mutted
doing everything with you /
Am (2 strums) C (1 strum) -----------/
and now that we're through
G C G (2 strums)
I just don't know what to do


G C G (1 strum) G (2 strums)
I just don't know what to do with myself
G C G (1 strum) G (2 strums)
I don't know what to do with myself



Am (2 strums) F (1 strum)
movies only make me sad
Am (2 strums) F (1 strum)
parties make me feel as bad
Am (2 strums) C (1 strum)
cause I'm not with you
G C G (2 strums)
I just don't know what to do


Heavy distortion
Chorus

G5
like a summer rose
F5
needs the sun and rain
Bb5 (2 strums)
I need your sweet love
F5 C5
to beat love away


G C G (1 strum) G (2 strums)
I just don't know what to do with myself
G C G (1 strum) G (2 strums)
just don't know what to do with myself


Am (2 strums) F (1 strum)
planning everything for two
Am (2 strums) F (1 strum)
doing everything with you
Am (2 strums) C (1 strum)
and now that we're through
Am (2 strums) C (1 strum)
I just don't know what to do


G5
like a summer rose
F5
needs the sun and rain
Bb5 (2 strums)
I need your sweet love
F5 C5
to beat love away


For the outro, add this riff on the end of each line + distortion

---------------------------------
-----15----15-----13-----12------
---------------------------------
---------------------------------
---------------------------------
---------------------------------

for the G on this outro use a bar G (355433)

G F G *riff*
I just don't know what to do with myself
G F G *riff*
just don't know what to do with myself
G F G *riff*
just don't know what to do with myself
G F G *riff*
I don't know what to do with myself


chords
F (133211)
Am (002210)
G (320033)
C (030210)
Bar G (355433)
G5 (355xxx)
F5 (133xxx)
Bb5 (x133xx)
C (x355xx)

There you go done.
Другие песни: