White StripesBall And Biscuit Текст

0 Голосов
#----------------------------------PLEASE NOTE------------------------------#

#This file is the author's own work and represents their interpretation of the
song. You may only use this file for private study, scholarship, or research.
#---------------------------------------------------------------------------#


********************************************
*** WHITE STRIPES ***
*** BALL AND BISCUIT ***
*** tab by Edit ***
********************************************

Tuning standard

h = hammer
p = pull
/ = slide on
= slide off
b = bend
v = vibrato

This is the riff:

E|-------0---0---------||
B|-------0---0---------||
G|---------2-----x-----||
D|---------------x-----|| X 7
A|--2------------x-----||
E|--0------------x-3---||

E|---------------------||
B|---------------------||
G|-/4-4-4--2p0--------||
D|--------------2p0----||
A|---------------------||
E|-------------------3-||

E|-------0---0---------||--------||
B|-------0---0---------||-3b-p-0-||
G|---------2-----x-----||--------||
D|---------------x-----||--------||
A|--2------------x-----||--------||
E|--0------------x-3---||--------||

E|-------0---0---------|| ||--------||
B|-------0---0---------|| ||-0-h-1v-||
G|---------2-----x-----|| ||--------||
D|---------------x-----|| X 2 ||--------||
A|--2------------x-----|| ||--------||
E|--0------------x-3---|| ||--------||

E|-------0---0---------||-------------------||
B|-------0---0---------||--2---2p0-2-0-2-0--||
G|---------2-----x-----||--2---2p0-2-0-2-0--||
D|---------------x-----||--2---2p0-2-0-2-0--||
A|--2------------x-----||--0-0-0-0-0-0-0-0--||
E|--0------------x-3---||-------------------||

Then:

E|-------0---0---------||-------------------||
B|-------0---0---------||------4p2-4-2-4-2--||
G|---------2-----x-----||--4---4p2-4-2-4-2--||
D|---------------x-----||--4---4p2-4-2-4-2--||
A|--2------------x-----||--2-2-2-2-2-2-2-2--||
E|--0------------x-3---||-------------------||


(Let's have a ball and a biscuit....)

E|------0-------0-0----0-0------0------------||
B|----0-------------------------0--0---------||
G|------------3------2------0h1----1--1------||
D|------------------------------------0------|| X 2
A|-2-----------------------------------------||
E|-0--------------------------------------3--||


Thanks. BELLA PE VOI!!!
Другие песни: