Вячеслав МалежикТы мне нравишься Текст, аккорды

0 Голосов
Вступление:
E|--6-----------5--6--5-----|--3--------------3--------|
B|--------3--------------3--|--------3-----------3-----|
G|-----3-----3--------------|-----3-----3-----------3--|
D|--5-----------4-----------|--3-----------2-----------|
A|--------------------------|--------------------------|
E|--------------------------|--------------------------|

--3-----5-----6-----3-----|--2-----3-2-5------8----|--6-----------5--6--5-----|
--------------------------|----------1-4-----------|--------3--------------3--|
-----3--------------------|-----2----2-5-----------|-----3-----3--------------|
--5--------5-----5-----5--|--0-------------0-------|--5-----------4-----------|
--3-----------------------|------------------------|--------------------------|
--------------------------|------------------------|--------------------------|

--3--------------3--------|--3-----5-----6-----3-----|--------------2--------|
--------3-----------3-----|--------------------------|--------1--------------|
-----3-----3-----------3--|-----3--------------------|-----2-----2-----------|
--3-----------2-----------|--5--------5-----5-----5--|--0--------------------|
--------------------------|--3-----------------------|-----------------------|
--------------------------|--------------------------|-----------------------|

Куплет:
E|--6-----------5--6--5-----|--3--------------3--------|
B|--------3--------------3--|--------3-----------3-----|
G|-----3-----3--------------|-----3-----3-----------3--|
D|--5-----------4-----------|--3-----------2-----------|
A|--------------------------|--------------------------|
E|--------------------------|--------------------------|

--3-----5-----6-----5-----|--------------------------|
--------------------------|--4-----------4-----------|
-----3--------------------|--------3-----------3-----|
-----------5-----5-----5--|-----5-----5-----5-----5--|
--3-----------------------|--3-----------------------|
--------------------------|--------------------------|

--------2-----5-----8-----|--5-----------2-----5-----|
--------1-----4-----7-----|--4-----------1-----4-----|
--------2-----5-----8-----|--5-----------2-----5-----|
--0--0-----0-----0-----0--|-----0--0--0-----0-----0--|
--------------------------|--------------------------|
--------------------------|--------------------------|

-----------3-----------3--|-----------3-----------3--|
--------3-----------3-----|--------3-----------3-----|
-----3-----------3--------|-----3-----------3--------|
--5-----------------------|--5-----------------------|
--------------5-----------|--------------5-----------|
--------------------------|--------------------------|

--6-----------5--6--5-----|--3--------------3--------|
--------3--------------3--|--------3-----------3-----|
-----3-----3--------------|-----3-----3-----------3--|
--5-----------4-----------|--3-----------2-----------|
--------------------------|--------------------------|
--------------------------|--------------------------|

--3-----5-----6-----5-----|--------------------------|
--------------------------|--4-----------4-----------|
-----3--------------------|--------3-----------3-----|
-----------5-----5-----5--|-----5-----5-----5-----5--|
--3-----------------------|--3-----------------------|
--------------------------|--------------------------|

--------2-----5-----8-----|--5-----------2-----5-----|
--------1-----4-----7-----|--4-----------1-----4-----|
--------2-----5-----8-----|--5-----------2-----5-----|
--0--0-----0-----0-----0--|-----0--0--0-----0-----0--|
--------------------------|--------------------------|
--------------------------|--------------------------|

-----------3-----------3--|-----------3-----------3--|
--------3-----------3-----|--------3-----------3-----|
-----3-----------3--------|-----3-----------3--------|
--5-----------------------|--5-----------------------|
--------------5-----------|--------------5-----------|
--------------------------|--------------------------|

Gm Cm
Ты мне нравишься - и это мне не нравится,
D Gm D7
А под руками клавиши поют мотив любви
Gm Cm
Ты мне нравишься - и это мне не нравится,
D Gm
Пройдусь с тобой по краешку, над пропастью молвы

Припев:
|--------------3-----------|--------------1-----------|
|--------4-----------4-----|--------1-----------1-----|
|-----3-----3-----3-----3--|-----2-----2-----2-----2--|
|--------------------------|--3-----------------------|
|--3-----------------------|--------------------------|
|--------------------------|--------------------------|

--------------------------|--------------3-----------|
--------------3-----------|--4-----------------------|
--------2-----------2-----|--------3-----------3-----|
-----3-----3-----3-----3--|-----5-----5-----5-----5--|
--1-----------------------|--6-----------5-----------|
--------------------------|--------------------------|

--------------------------|--------------0-----------|
--------4-----------4-----|--------2-----------2-----|
-----3-----3-----3-----3--|-----0-----0-----0-----0--|
--------------------------|--------------------------|
--3-----------------------|--0-----------------------|
--------------6-----------|--------------------------|

--------------0-----------|--------------2-----------|
--------2-----------2-----|--------1-----------1-----|
-----0-----0-----0-----0--|-----2-----2-----2-----2--|
--------------------------|--0-----------------------|
--0-----------------------|--------------------------|
--------------------------|--------------------------|

--------------3-----------|--------------1-----------|
--------4-----------4-----|--------1-----------1-----|
-----3-----3-----3-----3--|-----2-----2-----2-----2--|
--------------------------|--3-----------------------|
--3-----------------------|--------------------------|
--------------------------|--------------------------|

--------------------------|--------------3-----------|
--------------3-----------|--4-----------------------|
--------2-----------2-----|--------3-----------3-----|
-----3-----3-----3-----3--|-----5-----5-----5-----5--|
--1-----------------------|--6-----------5-----------|
--------------------------|--------------------------|

--------------------------|--------------0-----------|
--------4-----------4-----|--------2-----------2-----|
-----3-----3-----3-----3--|-----0-----0-----0-----0--|
--------------------------|--------------------------|
--3-----------------------|--0-----------------------|
--------------6-----------|--------------------------|

--------------2-----------|--------------3-----------||
--------1-----------1-----|--------3-----------3-----||
-----2-----2-----2-----2--|-----3-----3-----3-----3--||
--0-----------------------|--5-----------------------||
--------------------------|--------------------------||
--------------------------|--------------------------||

Cm F7 Dm Gm Gm/C
Прогулки по тонкому льду - прогулки по минному полю,
Eb Cm D7
И вот на свиданье к тебе я иду, несу свою радость и боль
Cm F7 Dm Gm Gm/C
На счастье или на беду - ты сделала шаг мне навстречу,
Eb Cm D7 Gm
И вот на свиданье к тебе я иду в холодный сентябрьский вечер

Gm Cm
Ты мне нравишься - и это мне не нравится,
D Gm D7
А под руками клавиши поют мотив любви
Gm Cm
Ты мне нравишься - и это мне не нравится,
D Gm
Пройдусь с тобой по краешку над пропастью молвы

Cm F7 Dm Gm Gm/C
Холодные струи дождя - компресс воспаленному мозгу,
Eb Cm D7
А может быть все это, все это зря? А может иду я не в ногу?
Cm F7 Dm Gm Gm/C
На счастье или на беду ты сделала шаг мне навстречу,
Eb Cm D7 Gm
И вот на свиданье к тебе я иду в холодный сентябрьский вечер
Gm
Ты мне нравишься...
Другие песни: