Violent FemmesPlease Dont Go Текст, аккорды

0 Голосов
I found this website with this on it....It's perfect...You still need to go find the solo though.


B A S S L I N E S:

/ = slide up p = pull-off


The INTRO is just this:

G|-----------------|
D|-2h3--2----------|
A|--------5---1/2--| Then go straight away into the VERSE-BASSLINE.
E|-----------------|


OK, here's the VERSE-BASSLINE:
G C D
G|-------------------------------------------------------|
D|-------------5--5-3-2-------------------3p2---2--------|
A|-------1/2-5----------5--3--2--3--0--5------5---0h2----|
E|---3---------------------------------------------------|

and sometimes, like the end of the verse, it goes like this:

G C D
G|--------------------------------------------------|
D|-------------5--5-3-2-----------------------------|
A|-------1/2-5----------5--3--2--3--0--5--3--2--0---|
E|---3----------------------------------------------|


Now the CHORUS-BASSLINE:
G C D
G|-------------------------------------------------|
D|--5----3----2------------------------------------|
A|-----------------5----3--2--3--0--5--3--2--0-----|
E|-------------------------------------------------|


And finally, the BRIDGE-BASSLINE:
C G
G|---------------------------------------------|
D|---------------------------------2-----------|
A|--3---2---0------------2-----5-5-----5--2----|
E|--------------3-----3-----3------------------|
|
Play this three times and then this
|
C D
G|---------------------------------------------|
D|---------------------------------------------|
A|--3---2---0-------5-----3-5----5--3--2--0----|
E|--------------3------------------------------|

That should give you everything you need.
Enjoy!

All of this is on: www.geocities.com/SunsetStrip/Garage/4564/qualtabs.htm
Другие песни: