Виноградный ДеньА что такое толерантность? Текст, аккорды

0 Голосов
На протяжении всей песни:
D|---------------------------|---------------------------|
A|-----------------------5---|-----------------------5---|
F|----------5------------5---|----------5------------5---|
C|----------5----------------|----------5----------------|
G|--3-----3----3----3--3-----|--3-----3----3----3--3---2-|
D|---------------------------|---------------------------|

D|---------------------------|---------------------------|
A|-----------------------1---|---------------------------|
F|----------2------------2---|----------2----------------|
C|----------2----------------|----------2----------------|
G|--0-----0----0----0--0-----|--0-----0----0-------------|
D|---------------------------|---------------------------|

D|---------------------------|
A|---------------------------|
F|---------------------------|
C|--5----5------7------------|
G|--5----5------7------------|
D|-----3------5--------------|

Конец песни: C G Am F }x4
Другие песни: