VinesAint No Room Текст

0 Голосов
Band : The Vines

Song : Ain't No Room
Album : Highly Envolved
Tabber : Josh
Date : September 1, 2002

This is the first song ive figured out may be wrong if it is
and if you know the right way put it on corrections......

intro :

E----------------------------------------------------------------------------|
B----------------------------------------------------------------------------|
G--9-7-9-7-9-7-9-7-9--7-5-7-5-7-5-7-5-7--------------------------------------|
D---------------------------------------7-5-7-5-7-5-7-5-7--7-5-7-5-7-5-7-5-7-| (2x)
A----------------------------------------------------------------------------|
E----------------------------------------------------------------------------|

Verse :

E------------------------------------------------------------------|
B------------------------------------------------------------------|
G----7---7---7---7-----------------7---7---7---7-------------------|
D----7---7---7---7--7---7---7---7--7---7---7---7--7---7---7---7----|
A----5---5---5---5--7---7---7---7--5---5---5---5--7---7---7---7----|
E-------------------5---5---5---5-----------------5---5---5---5----|

Pre-Chorus :

E-----------------------------------------------------------------------|
B-----------------------------------------------------------------------|
G----5--5---7--7--------------5--5---7--7-------------------------------|
D----5--5---7--7--7--7--7--7--5--5---7--7--7--7--7--7--7-7-7-7-7-7-7----|
A----3--3---5--5--7--7--7--7--3--3---5--5--7--7--7--7--7-7-7-7-7-7-7----|
E-----------------5--5--5--5---------------5--5--5--5--5-5-5-5-5-5-5----|
PM. . . . . . .
Chorus 1 :

E-------------------------------------------------------------------------|
B-------------------------------------------------------------------------|
G---7-7-7-7--5-5-5-5-------------------7-7-7-7--5-5-5-5-------------------|
D---7-7-7-7--5-5-5-5--7-7-7-7-7-7-7-7--7-7-7-7--5-5-5-5--7-7-7-7-7-7-7-7--|
A---5-5-5-5--3-3-3-3--7-7-7-7-7-7-7-7--5-5-5-5--3-3-3-3--7-7-7-7-7-7-7-7--|
E---------------------5-5-5-5-5-5-5-5--------------------5-5-5-5-5-5-5-5--|

Repeat Intro

Repeat Verse

Repeat Pre-Chorus

Chorus 2 : Let Chords Ring

E-----------------------------------------------|
B-----------------------------------------------|
G---7---5-------------7---5---------------------|
D---7---5---7---7-----7---5---7-7-7-7-7-7-7-7---|
A---5---3---7---7-----5---3---7-7-7-7-7-7-7-7---|
E-----------5---5-------------5-5-5-5-5-5-5-5---|
PM. . . . . . .

Solo : Sorry I Have No Idea About The Solo....If You Figure It Out Put It On Corrections
Другие песни: