VenomResurrection Текст

0 Голосов
e|-----------------------------------------------------------------|

B|--------10-----10-----------6----6-----------3----3---------4----|
G|-----------------------------------------------------------------|
D|-----12-----12----12------8----8----8------5----5---5-----6---6--|
A|--10-------------------6----------------3---------------4--------|
E|-----------------------------------------------------------------|

Chorus

e|-----------||-----||-----|-----|-----|-----||----------||
B|------3----||-----||-----|-----|-----|-----||----------||
G|-----------||--7--||-----|-----|--5--|--2--||--4/5/-7--||
D|----5---5--||--7--||--2--|--5--|--5--|--2--||--4/5/-7--||
A|--3--------||--5--||--2--|--5--|--3--|--0--||--2/3/-5--||
E|-----------||-----||--0--|--3--|-----|-----||----------||
^
repeat play this on last repeat of second chorus

Solo

e|-----------------------------------------------------------|
B|-----------------------------------------------------12----|
G|--9-9-9-9-9-11-11-----(11)9-9-11-9-11-----(11)-9-11----9--|
D|-----------------------------------------------------------|
A|-----------------------------------------------------------|
E|-----------------------------------------------------------|
^^^^^ ^^^^^
bend bend

e|--------------------------------------------------------------------|
B|----------------------------------------------------------------12--|
G|--11-----(11)-9-11-----(11)-9-11-11-----(11)-9-11-----(11)-9-11-----|
D|--------------------------------------------------------------------|
A|--------------------------------------------------------------------|
E|--------------------------------------------------------------------|
^^^^^ ^^^^^ ^^^^^ ^^^^^
bend bend bend bend

(repeat)
e|-------------------------|---------------------------||
B|-------12------12--------|---------------------------||
G|--9-11----9-11----9-11--|---------------------------||
D|-------------------------|--7/9----8----5/7----8--7--||
A|-------------------------|---------------------------||
E|-------------------------|---------------------------||

(last repeat/outro)
e|------------------------------||
B|------------------------------||
G|------------------------------||
D|--7/9----8----5/7----8--7--5--||
A|------------------------------||
E|------------------------------||
Другие песни: