VandalsPeople That Are Going To Hell Текст

0 Голосов
Vandals - People That Are Going To Hell

Tabbed By: Bert
EMail: loser_guitarist@hotmail.com
album: Hitler Bad, Vandals Good

intro: clean
e:--------------------------------|--------------------------------|
b:--------------------------------|--------------------------------|
g:--------------------------------|--------------------------------|
d:--4-2-0-2---0-----0-------------|--4-2-0-2---0-----0---2---------|
a:----------------4-----0---------|----------------4---------------|
e:--------------------------------|--------------------------------|

e:--------------------------------|--------------------------------|
b:--------------------------------|--------------------------------|
g:--------------------------------|--------------------------------|
d:--4-2-0-2---0-----0-------------|0-------------------------------|
a:----------------4-----0-----4---|--------4-------2-------4-------|
e:--------------------------------|--------------------------------|

e:--------------------------------|--------------------------------|
b:--------------------------------|--------------------------------|
g:--------------------------------|2-------------------------------|
d:----------------4-2-0-2-0----0--|2-------------------------------|
a:---------------------------4---0|0-------------------------------|
e:--------------------------------|--------------------------------|

i don't remember the rest, but i'll add it later

tabbed out 10/17/02 by =bert=
Другие песни: