Вадим СамойловСлова закончились Текст

0 Голосов
Вступление:
1|--------------------------------
2|--------------------------------
3|-------2----4-----0-------------
4|---2------------------4---------
5|--------------------------2-----
6|--------------------------------

1|--------------------------------
2|--------------------------------
3|-------2----4-----0-------------
4|---2------------------4---------
5|--------------------------------
6|--------------------------------

Вступление/проигрыш: C Am Em }x2

Во время куплетов на второй гитаре:
1|--0--0----0------0--0----0------
2|-------3-----3---------3----3---
3|--------------------------------

C Am Em
Вот чистый лист в нём проступают города
C Am Em
И очертанья наших будущих имён
C Am Em
Они видны издалека едва-едва
C Am Em
Не разглядеть их торжествующих знамён
C Am Em
Таращу лист уже усталые глаза
C Am Em
Хлещу кнутами воспалённые мозги
C Am Em
Пришёл, увидел,победил и опоздал
C Am Em
Исписан лист изорван лист и стол в крови

Припев:
Em F# A#m A#m *
Я тороплюсь, я торможу, я нужных слов не нахожу
Em F# A#m A#m **
Слов больше нет, и знаю я: им тоже плохо без меня
C * A#7(II) Em
Мы не найдём друг друга больше никогда
Am7 B7 Em
Слова закончились, закончились слова

Проигрыш: C Am Em }x2

C Am Em
Гоняю в комнате унылый порожняк
C Am Em
Как мухобойкой по стене гоняют мух
C Am Em
А в голове такой торжественный сквозняк
C Am Em
Что у меня уже захватывает дух

Припев:
Em F# A#m A#m *
Я тороплюсь, я торможу, я нужных слов не нахожу
Em F# A#m A#m **
Слов больше нет, и знаю я: им тоже плохо без меня
C * A#7(II) Em
Мы не найдём друг друга больше никогда
Am7 B7 Em
Слова закончились, закончились слова

Конец:
1|--------------------------------
2|--------------------------------
3|-------2----4-----0-------------
4|---2------------------4---------
5|--------------------------2-----
6|--------------------------------

1|--------------------------------
2|--------------------------------
3|-------2----4-----0-------------
4|---2------------------4---------
5|--------------------------------
6|--------------------------------
Другие песни: