Uriah HeepStealin' Текст

0 Голосов
Gtr I (E A D G) - 'Bass
Guitar' Inтrо:
Dm D Dm D
4/4
Gtr I
E E E E E E E E E E E E E E E E E E E E E E E E E E E E E E E E
---------------------------------------------------------------------
----------------------------------о----------------------------------
-5-5-5-5-5-5-5-5--5-5-5-5-5-5-5-5-о-5-5-5-5-5-5-5-5--5-5-5-5-5-5-5-5-
---------------------------------------------------------------------

Verse 1, 2:
C/D G/D D D
E E E E E E E E E E E E E E E E E E E E E E E E E E E E E E E E
----------------------------------------------------------------------
----------------------------------о-----------------о-----------------
-5-5-5-5-5-5-5-5--5-5-5-5-5-5-5-5-о-5-5-5-5-5-5-5-5-о-5-5-5-5-5-5-5-5-
----------------------------------------------------------------------

Bridge:
C/D G/D D G
E E E E E E E E E E E E E E E E E E E E E E E E 6x E E E E E E E E
---------------------------------------------------------------------
---------------------------------------------------о-----------------
-5-5-5-5-5-5-5-5--5-5-5-5-5-5-5-5--5-5-5-5-5-5-5-5-о-----------------
-----------------------------------------------------3-3-3-3-3-3-3-3-
F Fmaj7 G
E E E E E E E E E E E E E E E E E E E E E E E E E E E E E E E E
--------------------------------------------------------------------
--------------------------------------------------------------------
--------------------------------------------------------------------
-1-1-1-1-1-1-1-1--1-1-1-1-1-1-1-1--1-1-1-1-1-1-1-1--3-3-3-3-3-3-3-3-
F Fmaj7
E E E E E E E E E E E E E E Q +W
---------------------------------------------
---------------------------------------------
---------------------------------------------
-1-1-1-1-1-1-1-1--1-1-1-1-1-0-1---(1)--------
D
E E E E E E E E E E E E E E E E
----------------------------------
----------------------------------
-5-5-5-5-5-5-5-5--5-5-5-5-5-5-5-5-
----------------------------------
C G D
-3- -3- -3-
E E E E E E E E E E E E E E E E E E E E E E E E E E E
---------------------------------------------------------
---------------------------------------------------------
-3-3-3-3---------3--5-5-5-5-5-5-----3--5-5-5-5-5-5-----3-
---------3-3-3-5----------------3-5----------------3-5---

Verse 3:
C G D D
-3- -3-
E E E E E E E E E E E E E E E E E E E E E E E E E E E E E E E E E E
--------------------------------------------------------------------------
--------------------------------------------------------------------------
-5-5-5-5-5---5-7-5--3-3-3-3-------3--5-5-5-5-5-5-5-5--5-5-5-5-5-5-----3---
-----------5----------------3-3-5---------------------------------3-5-----
C G D
-3- -3-
E E E E E Q E E E E E E E E E E E E E E E E E E E E E E E E E E E
-------------------------------------------------------------------------
-----4-5-7-5--4----------------------------------------------------------
-5-5------------5--3-3-3-3----------5------------------5-5-5-5-5-5-5-5---
---------------------------3-3-3-3----7-5-2-2-3-3-5-5--------------------

Bridge:
C G D G
-3-
E E E E E E E E E E E E E E E E E E E E E E E E E E E E E E E E E
----------------------------------------------------------------------
----------------------------------------------------------------------
-5-5-5-5-5-5-5-5--3-3-3-3---------3--5-5-5-5-5-5-5-5------------------
--------------------------3-3-3-5---------------------3-3-3-3-3-3-3-3-
F Fmaj7
-3- -3- -3- -3-
E E E E E E E E E E E E E E E E E E E E E E E E E E E E
-----------------------------------------------------------
--------------------------3-3------3-3-3-3-3-3-3-3-3-4-4-4-
------------------3-3-5-5-----5-5--------------------------
-1-1-5-5-6-6-7-7-------------------------------------------
G F Fmaj7
E E E E E E E E E E E E E E E E E E E E E E Q +W
----------------------------------------------------------
-5-5-5-5-5-5-5-5--3-3-------------------------------------
----------------------------------------------------------
----------------------5-5-6-6-7-7--8-8-0-0-1-1-1---(1)----
D
--3-- --3-- --3-- --3--
E E E E E E E E E E E E E E Q E E E E E E E E E E E E
----------------------------------------------------------------------
----------------------------------------------------------------------
-5-5-5-5-5-5-5-5--5-5-5-5-5-5-5S==17-17-17-17-17-17-17-17-17-17-17-17-
----------------------------------------------------------------------

Guitar Sоlо:
D
--3-- --3-- --3--
E E E E E E E E E Q E E E E E E E E E E E E E E E E
------------------------------------------------------------------
------------------------------------------------------------------
-17-17-17-17-17-17-17-17-17-17S==5-5-5-5-5-5-5-5--5-5-5-5-5-5-5-5-
------------------------------------------------------------------
C G D
-3- -3-
E E E E E E E E E E E E E E E E E E E E E E E E E E
--------------------------------------------------------
--------------------------------------------------------
-3-3-3-3----------5-5-5-5-5-5-----3--5-5-5-5-5-5-----3--
---------3-3-3-3--------------3-5----------------3-5----
C G D
-3- -3-
E E E E E E E E E E E E E E E E E E E E E E E E E E
--------------------------------------------------------
--------------------------------------------------------
-5-5-5-5-5---5-7-5--3-3-3-3----------5-5-5-5-5-5-----3--
-----------5----------------3-3-3-3--------------3-5----
C G
-3- -3-
E E E E E E E E E E E E E E E E E E E E E E E E E E
--------------------------------------------------------
--------------------------------------------------------
-5-5-5-5-5-5-----3--5-5-5-5-5---5-7-5--3-3-3-3----------
-------------3-5--------------5----------------3-3-3-3--
D
-3-
E E E E E E E E E E E E E E E E E E E E E E E E E
-----------------------------------------------------
-----------------------------------------------------
-5-3----------------5-5-5-5-5-5-5-5--5-5-5-5-5-5-5-5-
-----5-2-2-3-3-5-5-----------------------------------

Verse 4:
C G D
-3- -3- -3-
E E E E E E E E E E E E E E E E E E E E E E E E E E E
---------------------------------------------------------
---------------------------------------------------------
-3-3-3-3-3------------5-5-5-5-5-5-----3--5-5-5-5-5-5-5-5-
-----------3-3-3-3-3--------------3-5--------------------
C G D
-3- -3-
E E E E E E E E E E E E E E E E E E E E E E E E E E
--------------------------------------------------------
--------------------------------------------------------
-5-5-5-5-5---5-7-5--3-3-3-3----------5-5-5-5-5-5-----3--
-----------5----------------3-3-3-3--------------3-5----
C G
-3- -3-
E E E E E E E E E E E E E E E E E E E E E E E E E E
--------------------------------------------------------
--------------------------------------------------------
-5-5-5-5-5-5-----3--5-5-5-5-5---5-7-5--3-3-3-3----------
-------------3-5--------------5----------------3-3-3-3--
D C G D C G
E E E E E E E E E E E E E E E E E E E E E E E E E E E E E E E E
--------------------------------------------------------------------
--------------------------------------------------------------------
-5-5-5-5-5-5-5-5--3-3-3-3----------5-5-5-5-5-5-5-5--3-3-3-3---------
--------------------------3-3-3-3---------------------------3-3-3-3-

Оuтrо:
D C G
-3-
E E E E E E E E E E E E E E E E E E E E E E E E E
-----------------------------------------------------
-----------------------------------------------------
-5-5-5-5-5-------3--5-5-5-5-5-5-5-5--3-3-3-3---------
-----------5-3-5-----------------------------3-3-3-3-
D C G D
-3- -3- -3-
E E E E E E E E E E E E E E E E E E E E E E E E E E E
-----------4-7-4-----------------------------------------
-------4-7-------7-4-------------------------------------
-5-5-7---------------7--3-3-3-3----------5-5-5-5-5-5-5-5-
--------------------------------3-3-3-3------------------
C G D C G
-3- -3-
E E E E E E E E E E E E E E E E E E E E E E E E E E
--------------------------------------------------------
---------------------------------------------5-4-5-4----
-3-3-3-3----------5-3----------------3-3-3-3---------5--
---------3-3-3-3------5-2-2-3-3-5-5---------------------
D C G D
-3-
E E E E E E E E E E E E E E E E E E E E E E E E E
-----------------------------------------------------
-----------------------------------------------------
-5-5-5-5-5-5-5-5--3-3-3-3----------5-3---------------
--------------------------3-3-3-3------5-2-2-3-3-5-5-
C G D C G
E E E E E E E E E E E E E E E E E E E E E E E E
---------------------------------------------------
---------------------------------------------------
-3-3-3-3----------5-5-5-5-5-5-5-5--3-3-3-3---------
---------3-3-3-3---------------------------3-3-3-3-
D C G D
-3-
E E E E E E E E E E E E E E E E E E E E E E E E E
-----------------------------------------------------
-------------------------------------------4---4-----
-5-5-5-5-5---5-7-5--3-3-3-3----------5-5-7---7---7-5-
-----------5----------------3-3-3-3------------------
C G D C G
-3-
E E E E E E E E E E E E E E E E E E E E E E E E E
-----------------------------------------------------
-----------------------------------------------------
-3-3-3-3----------5-5-5-5-5-5-5-5--3-3-3-3---------3-
---------3-3-3-3---------------------------3-3-3-5---
D C G D
-3-
E E E E E E E E E E E E E E E E E E E E E E E E E
-----------------------------------------------------
-----------------------------------------------------
-5-5-5-5-5-5-3-2-3--5-5-5-5-5-5-5-5--3-3-4-4-5-5-5-5-
-----------------------------------------------------
C G D C G
-3-
E E E E E E E E E E E E E E E E E E E E E E E E E
-----------------------------------------------------
-----------------------------------------------------
-3-3-3-3----------5-5-5-5-5-5-5-5-5--3-3-3-3---------
---------3-3-3-3-----------------------------3-3-3-3-
D C G D
-3-
E E E E E E E E E E E E E E E E E E E E E E E E E
-----------------------------------------------------
-----------------------------------------------------
-5-5-5-5-5-5-5-5-5--3-3-3-3----------5-5-5-5-5-5-5-5-
----------------------------3-3-3-3------------------
C G D C G
E E E E E E E E E E E E E E E E E E E E E E E E
---------------------------------------------------
---------------------------------------------------
-3-3-3-3----------5-5-5-5-5-5-5-5--3-3-3-3---------
---------3-3-3-3---------------------------3-3-3-3-
D C G/D
-3- -3- -3- -3- -3-
E E E E E E E E E E E E E E E E E E E E E E E E E E E E E
-------------------------------------------------------------
-------------------------------------------------------------
-5-5-5-5-5-5-5-5-5--5-5-5-5-5-5-5-5-5-5-5-5--5-5-5-5-5-5-5-5-
-------------------------------------------------------------
F/C D
-3- -3- -3- --3-- --3--- --3--
E E E E E E E E E Q E E E Q +E E E E E E
--------------------------------------------------------:
--------------------------------------------------------:
-5-5-5-5-5-5-5-5-5-5S==17-17-17-17--(17)-17-17-17-17-16-:
--------------------------------------------------------:
--3-- --3-- --3-- --3--
E E E E E E E E E E E E
-------------------------------------:
-------------------------------------:
-16-16-15-15-14-14-14-13-13-12-12-11-:
-------------------------------------:
--3-- -3-
E E E E E E Q Q e E +H.
----------------------:-----------------:
----------------------:-----------------:
-11-11-10-9-9-9-9s=5S=:=12--------------:
----------------------:----10-(10)------:
+W +W +H +H
-------------:-------------:-----------------
-------------:-------------:-----------------
-------------:-------------:-----------------
-(10)--------:-(10)--------:-(10)----(10)----
Другие песни: