Uriah HeepRainbow Demon Текст

0 Голосов
Intro organ: Cm Bb/C } x3

Verse:
Cm
There rides the Rainbow Demon
Bb/C
On his horse of crimson fire
Cm
Black shadows are following closely
Bb/C
On the heels of his desire

Organ: Cm Bb/C } x3

Verse:
Riding on in the mist of morning
No one dared to stand in his way
Possessed by some distant calling
Riding on through night and day

Cm Bb Cm Bb

Chorus:
Eb F Cm Bb Cm
Rainbow Demon - pick up your heart and run
Eb F Cm Bb Cm
Rainbow Demon - lives for his sword and his gun

Cm Bb Cm Bb

Verse:
Cm
Riding on in the mist of morning
Bb
No one dared to stand in his way
Cm
Possessed by some distant calling
Bb
Riding on through night and day

Cm Bb

Chorus:
Rainbow Demon - pick up your heart and run
Rainbow Demon - lives for his sword and his gun

Guitar solo: ~=use your tremolo arm)
Cm Bb Cm
[E---------------------------------------------------------------
B---------------------------------------------------------------
G-------------------3-----------------------------------------3-
D-------1p0---1-3-5---------------------------1p0---1---1-3-5---
A-3b5r3-----3----------3b5r3-1p0---1~---3b5r3-----3---3---------
E--------------------------------3------------------------------
Bb Cm Bb
E--------------------------------------------------------
B-6b8r7b8-4h6p4------------------------------------------
G---------------5-3~---5-5-3p2---3---3-5--5-5-3p2---3----
D------------------------------5---5--------------5---5--
A--------------------------------------------------------
E--------------------------------------------------------
Cm Bb
E----------------------------------------
B----------------------------------------
G-5b7r6b7--5p3---3---3-5--5b7r6b7--------
D--------------5---5---------------------
A-----------------------------------1~---
E----------------------------------------]

Chorus:
Rainbow Demon - pick up your heart and run
Rainbow Demon - lives for his sword and his gun

(repeat chorus to fade)
Другие песни: