Urge OverkillPositive Bleeding Текст

0 Голосов
Intro:		
[---------------------------- ----------------------
---------------------------- ----------------------
---------------------------- -------2-2-4----------
--5-5-2--5-5-5-5-2---------- ---5-5-2-2-4----------
--5-5-2--5-5-5-5-2---------- ---5-5-0-0-2----------
--3-3-0--3-3-3-3-0---------- ---3-3----------------]
(repeat 1x, then)
Hey look around today

B G B
[----2-----3------3------------2-2----
-4----0---0----------------4------0--
-4--------0----0-----------4---------
-4--------0----------------4---------
-2--------2----------------2---------
----------3--------------------------]
Everything don't need to be the same

G A E
[-----------------------------------------------
-3-5-3-2-0-------------------------------------
-----------------------2-----------------------
-----------------------2------------------2----
-----------------------0------------------2----
------------------------------------------0----]
That's pretty much the way all of the verses go.

Pre-chorus:
A A B B E (power chords)

Chorus:
I live my life with no ...
B A E5 B A/B
[----------------------------0--------------------------
----------------------------0--------------------------
-4-4---------2-2-----------------4-2-4-2---------------
-4-4---------2-2----------2------4-2-4-2---------------
-2-2---------0-0----------2------2-2-2-2---------------
------------------------0------------------------------] } Repeat
Другие песни: