UnseenAre We Dead Yet Текст

0 Голосов
Artist: The Unseen

Song: Are We Dead Yet
Album: So This is Freedom?
Track: 2
Tabbed by: Rick (RCGoalie1@aol.com)
AIM: unhlax23


Chords:

E5 (x799xx)
G#5 (466xxx)
A5 (577xxx)
B5 (799xxx)


Intro/Chorus:

E5 G#5 A5 B5
E|--------------------------|
B|--------------------------|
G|-9-9-9--------------------|
D|-9-9-9-6-6-6-7-7-7-9-9-9--|
A|-7-7-7-6-6-6-7-7-7-9-9-9--|
E|-------4-4-4-5-5-5-7-7-7--|


Verse:

E5 B5 A5
E|-----------------------------------------------------------------|
B|-----------------------------------------------------------------|
G|-9-9-9-9-9-9-9-9-------------------------------------------------|
D|-9-9-9-9-9-9-9-9-9-9-9-9-9-9-9-9-7-7-7-7-7-7-7-7-7-7-7-7-7-7-7-7-|
A|-7-7-7-7-7-7-7-7-9-9-9-9-9-9-9-9-7-7-7-7-7-7-7-7-7-7-7-7-7-7-7-7-|
E|-----------------7-7-7-7-7-7-7-7-5-5-5-5-5-5-5-5-5-5-5-5-5-5-5-5-|


Bridge:

A5 B5
E|---------------------|
B|---------------------|
G|---------------------|
D|-7-7-7-7-7-7---9-9---|
A|-7-7-7-7-7-7---9-9---|
E|-5-5-5-5-5-5---7-7---|


Sorry, I don't know the solo, but that should be everyting else.
Rate this and email me with questions. Later.
Другие песни: