УндервудГагарин, я Вас любила Текст

0 Голосов
Intro:
1-----------------------------|
2-----------------------------|
3-----------------------------| x3
4-----------------------------|
5|----------1-2-------1-2-----|
6|-7/-0-3-0-----0-3-0-----3-0-|

1--------------------------|
25-5-3---------------------|
3------2-0-----------------|
4----------2-2-------------|
5|-------1-2---------------|
6|-0-3-0-------------------|

Em
Он обернулся простой такой
Am C B
И белозубый и незнакомый
Em
Пригладил волосы рукой
Am C B
Пока еще не сведен оскомой
Em
Добрый добрый рот его
Am C B
Нежной нежной улыбкой милой
Em
Касался пусть бы был никто
Am C B
Прощай прощай родной бесстыжий

Рефрэйн:
"...Жизнь пило-пилотаж..."
4|---3-0-------3-0-----
5|-------3-0-------3-0-
6|-1---------1---------

4----------------------------------
5|-----0-1-1-2-1-2-----0-1-1-2-1-2-
6|-0-3-------------0-3-------------

"...Жизнь крыла спалила..."
4|---3-0-------3-0---------------------------|
5|-------3-0-------3-0-2-2-2-2-2/9-9-9-9-7-5-|
6|-1---------1-------------------------------|

F Em
Жизнь пило-пилотаж
F B
Жизнь крыла спалила

Припев:
"...Гагарин я вас любила о-о-о ла-ла-ла-лай..."
3---------------------------------------------------|
4|-2-2/5-4-4/7-5-5/9-7-7/10-9-9-5-7-7-4-5-5-2-------|
5---------------------------------2-2---------------|

Em Am Em B
Гагарин я вас любила о ла-ла-ла-лай
Em Am Em B
Гагарин я вас любила о ла-ла-ла-лай
Em Am Em B
Гагарин я вас любила о ла-ла-ла-лай
Em Am Em B
Гагарин я вас любила о

Em
Не знал он после как долго я
Am C B
Была осколком его деталей
Em
И в спину била его струя
Am C B
И жал он молча свои педали
Em
Больно больно потом упал
Am C B
Расшибился из под обломков
Em
Извлек себя и начертал
Am C B
На фюзеляже златой иглокой

Рефрэйн:
"...Жизнь пило-пилотаж..."
4|---3-0-------3-0-----
5|-------3-0-------3-0-
6|-1---------1---------

4----------------------------------
5|-----0-1-1-2-1-2-----0-1-1-2-1-2-
6|-0-3-------------0-3-------------

"...Жизнь крыла спалила..."
4|---3-0-------3-0---------------------------|
5|-------3-0-------3-0-2-2-2-2-2/9-9-9-9-7-5-|
6|-1---------1-------------------------------|

F Em
Жизнь пило-пилотаж
F B
Жизнь крыла спалила

Припев:
"...Гагарин я вас любила о-о-о ла-ла-ла-лай..."
3---------------------------------------------------|
4|-2-2/5-4-4/7-5-5/9-7-7/10-9-9-5-7-7-4-5-5-2-------|
5---------------------------------2-2---------------|

Em Am Em B
Гагарин я вас любила о ла-ла-ла-лай
Em Am Em B
Гагарин я вас любила о ла-ла-ла-лай
Em Am Em B
Гагарин я вас любила о ла-ла-ла-лай
Em Am Em B
Гагарин я вас любила о

Главное соло:
(играется тремоло)
1|----------------------------------
2|----------------------------------
3|----------------------------------
4|-2-4-5-10-9-7-5-4-5-2-1-4-2---5-4-
5|----------------2-----------------
6|----------------------------------

1-----------------------11-14-12-
2--------------12-11-12----------
3|----------4-8-9-11-14-12-------
4|-2-4-5-10----------------------
5--------------------------------
6--------------------------------

1|-12-12-12-10-----------13-13-------13-13-------
2|-10--13-13-------13-13-------13-13-------------
3|-----------------------------------------------

1|-------12-12-------12-12--------------13-13-------
2|-12-12-------12-12-------12-12--13-13-------13-13-
3|--------------------------------------------------

1|--13-13-15-15-17-17-17-19-22-19-22-19-22-19-22-
2|-----------------------------------------------
3|-----------------------------------------------

(тремоло!)
1|----12----10-8-7-5-3-7-7-7-6-5-|
2|-12----12----------------------| x2
3|-------------------------------|

Em
Как будто правда что млечный путь
Am C B
Господь спустил ему на лампасы
Em
Его погоны горят как ртуть
Am C B
Он так прекрасен что нас колбасит
Em
Белым светом наполнен он
Am C B
Добрый славный себе смеется
Em
Его душа как полигон
Am C B
Ему светло и ей поется

Рефрэйн:
"...Жизнь пило-пилотаж..."
4|---3-0-------3-0-----
5|-------3-0-------3-0-
6|-1---------1---------

4----------------------------------
5|-----0-1-1-2-1-2-----0-1-1-2-1-2-
6|-0-3-------------0-3-------------

"...Жизнь крыла спалила..."
4|---3-0-------3-0---------------------------|
5|-------3-0-------3-0-2-2-2-2-2/9-9-9-9-7-5-|
6|-1---------1-------------------------------|

F Em
Жизнь пило-пилотаж
F B
Жизнь крыла спалила

Припев:
"...Гагарин я вас любила о-о-о ла-ла-ла-лай..."
3---------------------------------------------------|
4|-2-2/5-4-4/7-5-5/9-7-7/10-9-9-5-7-7-4-5-5-2-------|
5---------------------------------2-2---------------|

Em Am Em B
Гагарин я вас любила о ла-ла-ла-лай
Em Am Em B
Гагарин я вас любила о ла-ла-ла-лай
Em Am Em B
Гагарин я вас любила о ла-ла-ла-лай
Em Am Em B
Гагарин я вас любила о
Другие песни: