U2If You Wear That Velvet Dress Текст

0 Голосов
E-7----5----4----3 ending of discoteque 
repeat that many times

Verse: clean
(1x only)
e-2---2-----2-2------0-0------3-3-----|
b-3-3---3---3---3----0---0----3---3---|
g-4---------2-----2--1-----1--0-----0-|
d-------------------------------------|
a-------------------------------------|
e-------------------------------------|
(this way the rest of the time)
e-2-2------2-2------0-0------3-3------|
b-3---3----3---3----0---0----3---3----|
g-4-----4--2-----2--1-----1--0-----0--|
d-------------------------------------|
a-------------------------------------|
e-------------------------------------|

ECHO PART

e-7-------10-9-7-----| repeat a couple
b---7---7--------10--| of times
g-----7--------------|
d--------------------|
a--------------------|
e--------------------|
Другие песни: