Tsunami BombObligation Текст

0 Голосов
Tabbed by:moi

Email:porcelain666@hotmail.com

Tuning: standard

intro and chorus:(im not indicating how many times you strum it. its pretty obvious)
e|---------------------------------------------------------------------------|
B|---------------------------------------------------------------------------|
G|--------11-10--------------------------------------------------------------|
D|-11--6--11-10--------------------------------------------------------------|
A|-11--6--9--8---------------------------------------------------------------|
E|-9---4---------------------------------------------------------------------|

verse and bridge( bridge has some palm muting in it)
e|---------------------------------------------------------------------------|
B|---------------------------------------------------------------------------|
G|---------------------------------------------------------------------------|
D|-11--6---8---6-------------------------------------------------------------|
A|-11--6---8---6-------------------------------------------------------------|
E|-9---4---6---4-------------------------------------------------------------|

ok thats the whole thing. criticism is welcome. please rate it!


| / slide up
| slide down
| h hammer-on
| p pull-off
| ~ vibrato
| + harmonic
| x Mute note
Другие песни: