Цой ВикторЭлектричка (intro) Текст

0 Голосов
Intro:
E |---0--7--5--2-3-2-0------0----0-2-3-0-0----------|
B |-----------------------3-1----1--------------0-1-|
G |-------------------------------------------------|
D |-------------------------------------------------|
A |-------------------------------------------------|
E |-------------------------------------------------|

Bass intro:
G |-----------------|----------------|
D |-----------------|----------------|
A |----------0-2-3--|----------0-1-2-|
E |-0-0--0-3--------|-0-0--0-3-------|

С басом идут аккорды: Em и C

А после этого идёт такое:

E |-3---3--3--4--3--4-|
B |-4---4--4--5--4--5-|
G |-3---3--3--4--3--4-| 4 раза
D |-------------------|
A |-------------------|
E |-------------------|

Этот проигрыш идёт в припеве
Другие песни: