Trey SongzSay Ahh Текст

0 Голосов
Tuning: Capo 4th (standard)

CHORUS:
e|-0--------1---0-(0h3)--|
B|-1--------1---3--------|
G|-2-(0h2)--2---0--------|
D|-2--------3---2--------|
A|-0--------3---2--------|
E|----------1---0--------|

VERSE:
(not in real song,
but this sounds good)
e|-0--1--0--0-----------|
B|-1--1--1--1-----------|
G|-2--2--0--0-----------|
D|-2--3--2--0-----------|
A|-0--3--3--2-----------|
E|----1-----------------|
Другие песни: