TravisSide Текст

0 Голосов
-=-=-=-=-=-=-=-=-=-=-=-=-=-

Travis
Side
The Invisible Band
Tabbed by Leandro Koren
Leandro_koren@yahoo.com.ar
-=-=-=-=-=-=-=-=-=-=-=-=-=-

Intro & Outro for Guitar 1°:

With capo in the 3°.

Just repeat this some more times:
You need to find the rhythm of this.

Intro: Gm D5/G

G||-|--0-0-0-0-0-0-0--|--0-0-0-0-0-0-0--|-|
D||-|--0-0-0-0-0-0-0--|--0-0-0-0-0-0-0--|-|
Bb|-|--0-0-0-0-0-0-0--|--0-0-0-0-0-0-0--|-|
F||-|--3-5-5-3-3-3-5--|--3-5-5-3-3-3-5--|-|
C||-|--3-3-3-3-3-3-3--|--3-3-3-3-3-3-3--|-|
G||-|--0-0-0-0-0-0-0--|--0-0-0-0-0-0-0--|-|

Intro & Outro for Guitar 2°:

G||-|----------------------|----------------------|----------------------|-|
D||-|---8-5-3-5---8-5-3-5--|---8-5-3-5---8-5-3-5--|---8-5-3-5---8-5-3-5--|-|
Bb|-|--4---------4---------|--4---------4---------|--4---------4---------|-|
F||-|----------------------|----------------------|----------------------|-|
C||-|----------------------|----------------------|----------------------|-|
G||-|----------------------|----------------------|----------------------|-|

G||-|----------------------|-|
D||-|---8-5-3-5---8-5-3-5--|-|
Bb|-|--4---------4---------|-|
F||-|----------------------|-|
C||-|----------------------|-|
G||-|----------------------|-|

Verse:
-=-=-=-

Gm D#
Well I believe there's someone watching over you
F Gm
They're watching every single thing you say
D#
And when you die they'll sit you down and take you through
F
You'll realise one day

Chorus:
-=-=-=-

Bb
That the grass is always greener on the other side
F/A
The neighbour's got a new car that you want to drive
C
And the time is running out
You wanna stay alive
F
We all live under the same sky
Bb
We all will live we all will die
F
There is no wrong there is no right
Bb Gm
The circle only has one side...side...side

Intro both guitars X 2.

Verse II:
-=-=-=-=-

Gm D#
We all try to live our lives in harmony
F Gm
For fear of falling swiftly overboard
D#
But life is both a major and a minor key
F
Just open up the chord

Chorus:
-=-=-=-

Bb
That the grass is always greener on the other side
F/A
The neighbour's got a new car that you want to drive
C
And the time is running out
You wanna stay alive
F
We all live under the same sky
Bb
We all will live we all will die
F
There is no wrong there is no right
Bb Gm
The circle only has one side...side...side

Bridge:
-=-=-=-

G||-|----------------------|----------------------|----------------------|-|
D||-|---8-5-3-5---8-5-3-5--|---8-5-3-5---8-5-3-5--|---8-5-3-5---8-5-3-5--|-|
Bb|-|--4---------4---------|--4---------4---------|--4---------4---------|-|
F||-|----------------------|----------------------|----------------------|-|
C||-|----------------------|----------------------|----------------------|-|
G||-|----------------------|----------------------|----------------------|-|

G||-|----------------------|-|
D||-|---8-5-3-5---8-5-3-5--|-|
Bb|-|--4---------4---------|-|
F||-|----------------------|-|
C||-|----------------------|-|
G||-|----------------------|-|

Solo at [2:01]:

G||-|------------------|------------------|------------------|------------------|-|
D||-|---12-10-8-7-5-1--|---12-10-8-7-5-1--|---12-10-8-7-5-1--|---12-10-8-7-5-1--|-|
Bb|-|--9--9--9-9----0--|--9--9--9-9----0--|--9--9--9-9----0--|--9--9--9-9----0--|-|
F||-|------------------|------------------|------------------|------------------|-|
C||-|------------------|------------------|------------------|------------------|-|
G||-|------------------|------------------|------------------|------------------|-|

Solo ending chord: D#

Chorus:
-=-=-=-

Bb
That the grass is always greener on the other side
F/A
The neighbour's got a new car that you want to drive
C
And the time is running out
You wanna stay alive
F
We all live under the same sky
Bb
We all will live we all will die
F
There is no wrong there is no right
Bb
That the grass is always greener on the other side
F/A
The neighbour's got a new car that you want to drive
C
And the time is running out
You wanna stay alive
F
We all live under the same sky
Bb
We all will live we all will die
F
There is no wrong there is no right
Bb Gm(intro both guitars)
The circle only has one side...side...side...side

Outro: Like intro both guitars.

Chords:
-=-=-=-

|||-| Gm | D# | F | Bb | F/A |-|
G||-|--0--|--6--|--8--|--6--|--2--|-|
C||-|--0--|--8--|-10--|--6--|--3--|-|
Bb|-|--0--|--8--|-10--|--7--|--2--|-|
F||-|--3--|--8--|-10--|--8--|--0--|-|
C||-|--3--|--6--|--8--|--8--|--0--|-|
G||-|--0--|-----|-----|--6--|--3--|-|

=-=-=-=-=-=-=-=-=-=-=-=-=-==-=-=-=-=-=-=-=-=-=-=-=-=-==-=-=-=-=-=-=-=-=-=-=-=-=-=
Any questions mail me to leandro_koren@yahoo.com.ar
=-=-=-=-=-=-=-=-=-=-=-=-=-==-=-=-=-=-=-=-=-=-=-=-=-=-==-=-=-=-=-=-=-=-=-=-=-=-=-=
Другие песни: