Tragically HipMusic At Work Текст

0 Голосов
song: Music at Work

artist: Tragically Hip
album: Music @ Work

Intro, verses (E,B,A)
e -------------------------------|
B -------------------------------|
G ----4--2--2h1-----4--2--2h1----|
D -2--4--2-----2-2--4--2-----2-2-|
A -2--2--0-------2--2--0-------2-|
E -0-------------0-------------0-|

Play starting riff a few more times, then this:
It's just alternating A and B chords
e -------------------------|
B -------------------------|
G -2-2-2-4-4-4-2-2-2-4-4-4-|
D -2-2-2-4-4-4-2-2-2-4-4-4-|
A -0-0-0-2-2-2-0-0-0-2-2-2-|
E -------------------------|
E5 B5 A5
e -----------------|
B -----------------|
G ------4--2-2-----|
D -2-2--4--2-2--2~-|
A -2-2--2--0-0--2~-|
E -0-0----------0~-|

*There were some notes in the interlude I couldn't get...sorry
But after the interlude play:
E B A E B A E
e -0--2--0-------0--2--0-------0-|
B -0--2--2-------0--2--2-------0-|
G -1--4--2--2h1--1--4--2--2h1--1-|
D -2--4--2-----2-2--4--2-----2-2-|
A -2--2--0-------2--2--0-------2-|
E -0--2----------0--2----------0-|
Другие песни: