Tragically HipGreasy Jungle Текст

0 Голосов
Band: The Tragically Hip

Song: Greasy Jungle
Album: Day for Night
Transcribed by: Adam Tenenbaum

Riff 1
e-----------------------------------------
B-----------------------------------------
G-9b11r9b11-7-----------------------------
D--------------------7/9/7----------------
A-------------------------------9/7--5--7-
E-----------------------------------------

Riff 2
e---------------------------------------------------
B--------------------7h8p7--------------------------
G-9b11r9b11-7------------------------7h9p7----7-9/11
D--------------------------7----7h9---------9-------
A---------------------------------------------------
E---------------------------------------------------

Riff 3
e---------------------------------------------------
B--------------------7h8p7--------------------------
G-9b11r9b11-7--------------7------------------------
D----------------------------7----------------------
A---------------------------------------------------
E---------------------------------------------------

Riff 4
e--------------------------------------------------
B------------------------11-11---------------------
G-9b11r9b11-7------------------------7-------------
D--------------------------------------------------
A--------------------------------------------------
E--------------------------------------------------

Riff 5
e--------------------------------------------------
B------------------------10-----------10-12p10/8-10
G-9b11r9b11-7---------------11p9/7/9---------------
D--------------------------------------------------
A--------------------------------------------------
E--------------------------------------------------

Riff 6
e---------8 8----
B--------------10
G----11----------
D----------------
A----------------
E----------------

Riff 7
e-----------------------------------------
B-----------------------------------------
G-9b11r9b11-7-----------------------------
D--------------------7h9--9p7-5-7---------
A-----------------------------------------
E-----------------------------------------

Riff 8
e-----------------------------------------
B------------10---------------------------
G-9b11r9b11-----11/9 7h9p7----------------
D-----------------------------------------
A-----------------------------------------
E-----------------------------------------
Chords

Intro: - D C D C
- D C D C

D C D C
Greasy jungle metropolis noir
D C D C
Easy tangles the easiest so far
D C D C
Ah
D C D C
Ah

D D
I drove down your road
C C
to Hazeldean where I tasted
D D C C
your funeral home's sandwiches and coffee
D D C C
I saw your hands melt into one another
D D
I saw you grieve and grow
C C
care alot about one another

C

D D
I stood at your sink
C C
and I felt your warm water
D D
I washed your dishes
C C
and I looked out your kitchen window where I
D D
saw a soulful gymnast
C C
melt in the air and shudder
D D
just above the snow
C C C
making moves that just weren't there

D C D C
Ah
D C D C
Ah

D D C
Velvet callow with wet hands
C
I turned out the lights and
D D C
breathing shallow hesitated
C
then went upstairs where
D D C C
I picked up your housecoat dried my hands and touched your hair
D D
and just then you awoke
C C
you could never really barely care

D C D C
Ah

D C D C
Ah
n.c
Ah
D C D C
Greasy jungle metropolis noir

Interlude
D C D C D C D C C C C
e---------------15b17r15------------------------------------------------------
B--------------------------10-b-12-r-10---------------------------------------
G-----------------------------------------------------------------------------
D-----------------------------------------------------------------------------
A-----------------------------------------------------------------------------
E-----------------------------------------------------------------------------

Solo

D C D C D C D
e-----------------------------------------------------------------------------
B-7----7--8----8/10-----------------------------------------------------------
G--------------------7-7-7-10p9p7--9-7-7--------------------------------------
D--------------------------------10-------10p9h10-9---9-7---5-5-5p4h5/7-------
A--------------------------------------------------10------------------5------
E-----------------------------------------------------------------------------

C D
e-----------------------------------------------------------------------------
B-----------------------------------------------------------------------------
G-----------------------------------------------------------------------------
D-------------------------------------10-------12......12-12-12-12-14-14-14-12
A----9-------12------9-------12-----------------------------------------------
E-10---10-10---10-10---10-10----10-10----10-10--------------------------------

C D
e-----------------------------------------------------------------------------
B-----------------------------------------------------------------------------
G----------12-10-12-10p9---9--------------------------------------------------
D-12-12-12--------------12--12-10-10-10-10-10-10p9-9----------------10.....---
A----------------------------------------------------12-12....10h12-----------
E-----------------------------------------------------------------------------

C D C
e-----------------------------------------------------------------------------
B-----------------------------------------------------------------------------
G------------------------------------------------12b14r12...12p10-10/9-9....--
D-------10h12p10----10h12p10----14-12-10-12-12...-----------------------------
A-10h12----------12----------12-----------------------------------------------
E-----------------------------------------------------------------------------

D C
e-----------------------------------------------------------------------------
B-----------------------------------------------------------------------------
G-11.....9-11p9----9----------------------------------------------------------
D---------------12---12-9-12...12-14-12-14...12-12-12-14-12-14-16-------------
A-----------------------------------------------------------------------------
E-----------------------------------------------------------------------------

C C D
e-----------------------------------------------------------------------------
B-----------------------------------------------------------------------------
G-------------------12-12-11-12-11-12...11-12-11-12-11-14....-----------------
D-12-12-12-14-16-16-----------------------------------------------------------
A-----------------------------------------------------------------------------
E-----------------------------------------------------------------------------

Feel free to send any suggestions to:
ac740@torfree.net - Adam Tenenbaum


=------------------------------------------------------------=
|Adam Tenenbaum |
|ac740@freenet.toronto.on.ca |
|Scryn on Realms of Despair - telnet://mud.compulink.com 4000|
=------------------------------------------------------------=
Другие песни: