Tommy TorresBesos y Sal Текст

0 Голосов
e|-------1-------------------------| 
B|-----------1---------------------|
G|-------------2---------2h3p2-----|
D|-----3-----------------------3---|
A|-------------------3-------------|
E|-1-------------------------------|

Verse:
F
Hoy no he venido a disculparme
F
Tampoco vengo a suplicar
C A#
Si me quieres bien y si no, también
F
А mí me da igual.
F
No quiero hablarte de la luna,
F
Ni de política, que va.
C A#
Solo quiero ver el amanecer
F
Contigo frente al mar.

Pre-Chorus:
Es que aquí y allá
Y en toda la ciudad
La noche está de buenas

Chorus:
D A# F
Hoy me quiero emborrachar,
C
De besos y sal
D A# F C
Dale, dale, dale cuerda al corazón
D A# F C
Hoy me voy a alcoholizar de ti
F C
Solo quiero ver el amanecer
Contigo frente al mar.

Riff:
e|--------------------------------------------------------------------------------------------|
B|--------------------------------------------------------------------------------------------|
G|-5h7--10--10--10----5h7-10--10-10--5h7-10-10---5h7--10--10--10---5h7-9--9-9---5h7-10--10-10-|
D|--------------------------------------------------------------------------------------------|
A|--------------------------------------------------------------------------------------------|
E|--------------------------------------------------------------------------------------------|

Verse:
Otra vez
F
La noche me agarra cantando
F
Más y más va la música enrollando
F
Óyeme bien, olvidemos el rencor
F
Que la guerra solo deja dolores
C A#
Solo quiero ver el amanecer
F
Contigo frente al mar
Quédate y verás
C A#
Solo quiero ver el amanecer
F
Contigo y nadie más

Pre-Chorus:
Es que aquí y allá
Y en toda la ciudad
La noche está de buenas

Chorus x2

D A# F
Hoy me quiero emborrachar,
C
De besos y sal
D A# F C
Dale, dale, dale cuerda al corazón
D A# F C
Hoy me voy a alcoholizar de ti
F C
Solo quiero ver el amanecer
F
Contigo frente al mar.

Riff:
e|--------------------------------------------------------------------------------------------|
B|--------------------------------------------------------------------------------------------|
G|-5h7--10--10--10----5h7-10--10-10--5h7-10-10---5h7--10--10--10---5h7-9--9-9---5h7-10--10-10-|
D|--------------------------------------------------------------------------------------------|
A|--------------------------------------------------------------------------------------------|
E|--------------------------------------------------------------------------------------------|

А pasarla bien,
Que la noche está para aprovechar
el amanecer
Cubierto de sal contigo estaré (x4)
Другие песни: