Timberlake JustinCry Me A River Текст

0 Голосов
Capo 4

Intro Riff: (continues throughout song)
Em B7 C Am6
e|--------3-------2-------3-------2-|
B|-------0-------4-------1-------1--|
G|------0-------2-------0-------2---|
D|-----2-------4-------2-------2----|
A|------------2-------3-------0-----|
E|---0------------------------------|

Main Riff during the song:
e|------------------------------------0-|
B|---------0---1-0-----1-0-----1-0------|
G|-----0-2---------2-------2-------2----|
D|-2-4----------------------------------|
A|--------------------------------------|
E|--------------------------------------|
Другие песни: