Tiger ArmyOutlaw Heart Текст

4 Голоса
------------------------------------------------------------------------------- 

OUTLAW HEART - Tiger Army
-------------------------------------------------------------------------------

Intro
E|---------------------------------------------------------------|
B|---------------------------------------------------------------|
G|---------------------------------------------------------------|
D|---------------------------------------------------------------|
A|-444-3-1---111-3-4---444-3-1-111-3-1-3-1-3---------------------|
E|------------------------------------------------------4--------|

E|---------------------------------------------------------------|
B|---------------------------------------------------------------|
G|---------------------------------------------------------------|
D|------------------------------------------------------1-3------|
A|-444-3-1---111-3-4---444-3-1-111-3-1-3-1-3-4-444---------------|
E|---------------------------------------------------------------|

Solo (2x)-lots of tremelo
E|--------9----------9--11--9--13--11-9----------9---------------|
B|--9h11----11----------------------------9h11-----11------11--9-|
G|---------------10------------------------------------10------10|
D|---------------------------------------------------------------|
A|---------------------------------------------------------------|
E|---------------------------------------------------------------|

TIGER ARMY NEVER DIE!!!!!!!!!!!!

-------------------------------------------------------------------------------
Другие песни: