TiamatAngel Holograms Текст, аккорды

0 Голосов
G--------------------------------------------------------------------------------

D--------------------------------------------------------------------------------
A--2-2-2-2-2-2-2-2---------------------------3-3-3-3-3-3-3-3---0-0-0-0-0-0--0-0--
E---------------------------0-0-0-0-0-0-0-0--------------------------------------
Intro

G--------------------------------------------------------------------
D--------------------------------------------------------------------
A---------------------------------------------------2-2-2-2-2-2-2-2--
E--3-3-3-3-3-3-3-3---0-0-0-0-0-0-0-0---------------------------------
Verses

G--------------
D--------------
A--0-0-0-0--
E--------------
End verse fill
Другие песни: