Thousand Foot KrutchSmall Town Текст

0 Голосов
TFK - Small Town


Intro/Verse:
E:-----------------------------0~~~0----0----2----3-p-2-
B:-----------------------------3~~~~3-----3----3--------
G:-----------------------------2~~~~~2------2----2------
D:--7-7-7-7-7-7-7—h—9--0--------------------------------
A:--7-7-7-7-7-7-7—h—9-----------------------------------
D:--7-7-7-7-7-7-7—h—9-----------------------------------

Chorus:
E:--------------------------------------------------------------------------
B:--------------------------------------------------------------------------
G:--------------------------------------------------------------------------
D:3-3-3-3-3--5-5-5-5--7-7-7-7--10-10-10-10--12-12-12-12--0-0-X-X-0-X-X-0-0-0
A:3-3-3-3-3--5-5-5-5--7-7-7-7--10-10-10-10--12-12-12-12--0-0-X-X-0-X-X-0-0-0
D:3-3-3-3-3--5-5-5-5--7-7-7-7--10-10-10-10--12-12-12-12--0-0-X-X-0-X-X-0-0-0

Verse:
Chorus:
Inrto:

Bridge:
E:-------------------------------------------------------------------
B:-------------------------------------------------------------------
G:------------------------------------------------7-7-7-7------------
D:7-7-7-7-7-7-h-9~-------------------------7-7-7-7-------------------
A:7-7-7-7-7-7-h-9~-------------------------5-5-5-5-------------------
D:7-7-7-7-7-7-h-9~---------------------------------------------------

Break:
E:-----------------------------------
B:-----------------------------------
G:-----------------------------------
D:3-X-X-5-X-X-10-X-X-7---------------
A:3-X-X-5-X-X-10-X-X-7---------------
D:3-X-X-5-X-X-10-X-X-7---------------

Break2:
E:--------------------------------------------------------
B:--------------------------------------------------------
G:--------------------------------------------------------
D:3-3-3-3-3-3---5-5-5-5-5---10-10-10-10---9-9---7-7-7-7-7-
A:3-3-3-3-3-3---5-5-5-5-5---10-10-10-10---9-9---7-7-7-7-7-
D:3-3-3-3-3-3---5-5-5-5-5---10-10-10-10---9-9---7-7-7-7-7-

Break: -Break2: -Intro:
Другие песни: