Third DayAgnus Dei Текст

0 Голосов
Artist: Third Day
Song:Agnus Dei
Tab done by: Jared Harrison (Massive J)



Intro 5x Repeat Several Times Getting Faster
G----------------|G----5-----5-|
D----5----5-7-5-3|D-33----33---|
A-33----33-------|A------------|
E----------------|E------------|

Play this between the verses little brigde when he stop singing.
G-----------------|
D----5----5-7-5-3-|
A-33----33--------|
E-----------------|
Before he goes into the chorus you can play this.
G----5-|
D-33---|
A------|
E------|
For the chorus they just play the chords C-G-F

Hope you enjoy
Другие песни: