They Might Be GiantsDaily Show Theme Текст

0 Голосов
Artist: They Might Be Giants

Song: Daily Show Theme

Chords: A G F
E|-----------|
B|-----------|
G|-----------|
D|--7--5--3--|
A|--7--5--3--|
E|--5--3--1--|
Riff 1:
E |---------------------------------------------------|
B |---------------------------------------------------|
G |---------------------------------------------------|
D |3---5---5---5----3--3--3--3--5----5--5--5--3--3--3-|
A |3---5---5---5----3--3--3--3--5----5--5--5--3--3--3-|
E |1---3---3---3----1--1--1--1--3----3--3--3--1--1--1-|

Main Riff:
E |---------------------------------------------|
B |---------------------------------------------|
G |---------------------------------------------|
D |-----2-------0---2---0-----------7----5---3--|
A |--3-----3---------------3---0----7----5---3--|
E |---------------------------------5----3---1--|
Другие песни: