Theatre Of TragedyCassandra Текст

0 Голосов
Basstab to Cassandra
By Theatre of Tragedy
Taken from the album Aegis

Transcribed by Roland de Graauw
Send comment, questions or requests to graauw@wxs.nl

Tune all strings down 1 step (D G C F)
Note that Eirik plays a 5-string, so it may occur that
I transcribe a part an octave higher...


Fill I Riff A

F ---| [--------------------------------------]
C ---| [--------------------------------------]
G -2-| [---2--------0-------------------------]
D ---| [---------------------2--------3----0--]



Riff B

F [-----------------------------------------------------
C [-----------------------------------------------------
G [---2-2-2-2-2-2-2-2--0-0-0-0-0-0-0-0------------------
D [-------------------------------------3-3-3-3-3-3-3-3-


F ------------------]
C ------------------]
G ------------------]
D -2-2-2-2-2-2-2-2--]



Riff C

F [-------------------------|----------------------------]
C [-------------------------|----------------------------]
G [-------------------------|----------------------------]
D [----0--------3-------/7--|--0--------3-------/7---5--]


Fill II (ending)

F ----|
C ----|
G ----|
D -/7-|
Другие песни: