The Living EndSave The Day Текст

0 Голосов
unforgiven@paradise.net.nz

This is the tab for the third (I think) Living End single. I'm pretty sure about the whole lot. It's a bit jumbled together so you may have
to do a bit of sorting to get it in the right order.

Intro riff:
|-------5-5--------------------------------|
|----------7---------------7b--------------|
|-----------7--------7-7-7-7b--7-x-8-8-----|
|-7-7-7-------7-x-5--7-7-7-----7-x-8-8-10--|
|-7-7-7-------7-x-5--5-5-5-----5-x-6-6-10--|
|-5-5-5-------5-x-3---------------------8--|

Verse riff part one (twice):
|------------------------------------------------------|
|------------------------------------------------------|
|------------------------------------------------------|
|--7-7-7-7-7-7-7-7-7-7-7-7-7-7-7-7-7-7-7-7-7-7-7-7-7-7-|
|--7-7-7-7-7-7-7-7-7-7-7-7-7-7-7-7-7-7-7-7-7-7-7-7-7-7-|
|--5-5-5-5-5-5-5-5-5-5-5-5-5-5-5-5-5-5-5-5-5-5-5-5-5-5-|
pm .. . . . . . . . . .. .. . . .

Verse riff part two:
|------------------------------------------------------|
|------------------------------------------------------|
|------------------------------------------------------|
|--3-3-3-3-3-3-3-3-3-3-3-3-3-3-3-3-3-3-3-3-3-3-3-3-3-3-|
|--3-3-3-3-3-3-3-3-3-3-3-3-3-3-3-3-3-3-3-3-3-3-3-3-3-3-|
|--1-1-1-1-1-1-1-1-1-1-1-1-1-1-1-1-1-1-1-1-1-1-1-1-1-1-|
pm .. . . . . . . . . .. . . . .. . .

Verse riff part three:
|------------------------------------------------------|
|------------------------------------------------------|
|------------------------------------------------------|
|--3-3-3-3-3-3-5-5-5-5-5-5-5-7-7-7-7-7-7-7-7-7-7-7-7-7-|
|--3-3-3-3-3-3-5-5-5-5-5-5-5-7-7-7-7-7-7-7-7-7-7-7-7-7-|
|--1-1-1-1-1-1-3-3-3-3-3-3-3-5-5-5-5-5-5-5-5-5-5-5-5-5-|
pm .. . .. .. . . . . . . .

Chorus riff:
|--------------------------------------|
|--------------------------------------|
|--5-5-5-5-5-5-5-5-5-5-5-5-5-5-5-5-5-5-|
|--5-5-5-5-5-5-5-5-5-5-5-5-5-5-5-5-5-5-|
|--3-3-3-3-3-3-3-3-3-3-3-3-3-3-3-3-3-3-|
|--------------------------------------|

|-------------------------------------------|
|-------------------------------------------|
|-------------------------------------------|
|-3-3-3-3-3-3-3-3-3-3-3-5-5-5-5-5-5-5-5-5-5-|
|-3-3-3-3-3-3-3-3-3-3-3-5-5-5-5-5-5-5-5-5-5-|
|-1-1-1-1-1-1-1-1-1-1-1-3-3-3-3-3-3-3-3-3-3-|

Bridge riff part one (4 times):
|-------------------------|
|-------------------------|
|--5-5-5-5-5-5-5-5-5-5-5--|
|--5-5-5-5-5-5-5-5-5-5-5--|
|--3-3-3-3-3-3-3-3-3-3-3--|
|-------------------------|
pm .. . . . . . . .

|-------------------------------------|
|-------------------------------------|
|--5----------------------------------|
|--5---5h7-5-3-2-0---3p2-0------------|
|--3---------------3-------3---0-2-5--|
|----------------------------3--------|

|------3h5-3-1-0-----1p0--------------|
|----------------3-1-----3-1---0-1-3--|
|--5-------------------------2--------|
|--5----------------------------------|
|--3----------------------------------|
|-------------------------------------|

Play this bit twice:
|-------------------------------------------------|
|-------------------------------------------------|
|-------------------------7-7-7-7-7-7-7-x-8-8-----|
|-7-7-7-7-7-7-7-7-x-5-5-5-7-7-7-7-7-7-7-x-8-8-10--|
|-7-7-7-7-7-7-7-7-x-5-5-5-5-5-5-5-5-5-5-x-6-6-10--|
|-5-5-5-5-5-5-5-5-x-3-3-3----------------------8--|
pm .. . . .. .. . . .

|-------------------------------------------------|
|-------------------------------------------------|
|-------------------------------------------------|
|--7----------------------------------------------|
|--7----------------------------------------------|
|--5----0-0-0-0-0-0-0-0-0-0-0-0--x/x--------------|
harm. .. . . . . . . . . . . .

Final riff:
|--------3---1---0-------0-----------------0-0-0--|
|--------------------3---1-----------------2-2-2--|
|--5---------------------2-----------------2-2-2--|
|--5--5------------------2-----------------2-2-2--|
|--3---------------------0-----------------0-0-0--|
|-------------------------------------------------|
Другие песни: