The Living EndRevolution Regained Текст

0 Голосов
-THE LIVING END-

Revolution Regained
Tabbed By Mick Fryar
manumiick20@yahoo.com


^=full bend and bring back down(let ring when brought down)
h=hammer on
p=pull off
~=vibrado



Intro:
Am Dm
e-----------0-----0--------:--1-1-1-1-1-1-1--:|
b--------1-----4-----1-----:--3-3-3-1-3-3-3--:|
g-----2-----------------2--:--2-2-2-2-2-2-2--:|
d--------------------------:--0-0-0-0-0-0-0--:|
a--0-----------------------:-----------------:|
e--------------------------:-----------------:|

Am
e-----------0-----0-------:-|
b--------1-----4-----1----:-|
g-----2-----------------2-:-|
d-------------------------:-|
a--0----------------------:-|
e-------------------------:-|

Am
e-----0-----------------------:----------0-----0-------:|
b--------3--2--0h1p0----------:-------1-----4-----1----:|
g---------------------2-------:----2-----------------2-:|
d------------------------3--2-:------------------------:|
a-----------------------------:-0----------------------:|
e--0--------------------------:------------------------:|

Dm C G C D E
e-1-1-1-1-1-1-1-:------------|
b-3-3-3-1-3-3-3-:------------|
g-2-2-2-2-2-2-2-:-5---5-7-9--|
d-0-0-0-0-0-0-0-:-5-5-5-7-9--|
a---------------:-3-5-3-5-7--|
e---------------:---3--------|

Verse:
A A G F G A
e------------------------------------------------|
b------------------------------------------------|
g-2-2-2-2-2-2-2-2-----2-------2---2-2-2-2-2-2----|
d-2-2-2-2-2-2-2-2ect--2-5-3-5-2---2-2-2-2-2-2ect-|(x2)
a-0-0-0-0-0-0-0-0-----0-5-3-5-0---0-0-0-0-0-0----|
e--/palm muted---------3-1-3--------------------|
|fill|


C
e-----|
b-----|
g-5-5-|
d-5-5-|
a-3-3-|
e-----|



Chorus:

C G A G F G# F G#
e--------------3---------------3----------:---------|
b--------------3---------------3----------:---------|
g--5-5-5-5-5---4---------------4----------:---------|
d--5-5-5-5-5---5---7-7-7-7-7---5---3--3-6-:-3--3-6--|
a--3-3-3-3-3---5---7-7-7-7-7---5---3--3-6-:-3--3-6--|
e--------------3---5-5-5-5-5---3---1--1-4-:-1--1-4--|

Verse

Chorus (play first section twice,followed by the second section)

Followed by:

C
e-----------------------------|
b-----------------------------|
g--5-5-5-5-5-5-5-5-5-5-5-5----|
d--5-5-5-5-5-5-5-5-5-5-5-5----|
a--3-3-3-3-3-3-3-3-3-3-3-3----|
e-----------------------------|


Intro (first 6 sections only)


Intro To Solo:

e-------------------------------------------------------------------|
b-------------------------------------------------------------------|
g-----------------4--------------------7----------------------6--7--|
d-----------4--6-----------------6--9-------------------6--9--------|
a--------6--------------------9-------------------6--8--------------|
e--4--7----------------7--10----------------4--7--------------------|
/ p a l m m u t e d.................


Solo:
D#
e-----------------------------------:------8-11-8h11-8-----:-|
b------------------11^--8--11--11^--:----9-------------9-8-:-|
g--10^-----8------------------------:--8-------------------:-|
d-------10---10-8-------------------:----------------------:-|
a-----------------------------------:----------------------:-|
e-----------------------------------:----------------------:-|


e-------10-13-11-10h11-10-------:|
b----11-------------------11----:|
g-10-------------------------10-:|
d-------------------------------:|
a-------------------------------:|
e-------------------------------:|


e------3-6-3h6p3--------4p3-----------------------------:|
b----4-----------4----------4p3-???-too fast to work out:|
g--3---------------3------------------------------------:|
d-------------------------------------------------------:|
a-------------------------------------------------------:|
e-------------------------------------------------------:|


e-----6---------------------------------------:|
b---8-6--8p6-4----6^-6-4----------------------:|
g--------------5---------5-5--5--7-7^--7-5-7^-:|
d---------------------------------------------:|
a-5-------------------------------------------:|
e---------------------------------------------:|


e--------------------------|
b-4-4-4-4-4-4-4-4-4-4-4-4--|
g-6^6^6^6^6^6^6^6^6^6^6^6^-|
d--------------------------|
a--------------------------|
e--------------------------|


Chorus (play first section twice followed by second section)

Outro:
A
e--------------------------:|
b--------------------------:|
g-2-2--2-2--2-2--2-2--2-2--:|
d-2-2--2-2--2-2--2-2--2-2--:|
a-0-0--0-0--0-0--0-0--0-0--:|
e--------------------------:|


A
e------------------------------------------------|
b------------------------------------------------|
g-2-2-2-------2-2-2-------2-2-2-------2-2-2------|
d-2-2-2-------2-2-2-------2-2-2-------2-2-2------|
a-0-0-0-------0-0-0-------0-0-0-------0-0-0------|
e-------4~~~--------4~~~--------4~~~--------4~~~-|

Am
e---0------------0------------0---------------------------|
b-----1-----1------1-----1------1-----1-------------------|
g---------2------------2------------2-------------------4-|
d-------2------------2------------2---------------4--6----|
a-0------------0------------0------------------6----------|
e----------------------------------------4--7-------------|
Другие песни: