The Living EndMispent Youth Текст

0 Голосов
- Bass Tab -

Mispent Youth - THE LIVING END

Intro:
g-----
d-----
a-7---
e----- Chris plays riff 4 time then you join in :

g---------------|
d---------------|
a---7-5---------|
e-0-----6-5-3---| Repeat as Needed.

Verse:
g---------------------------------------------------------------|
d---------------------------------------------------------------|
a-2-2-2-2-2-2-2-4-5-5-5-5-5-5-5-5------------------7--7--7--7---|
e---------------------------------5-5-5-5-5-5-5-5---------------|

g-------------------------------------------------------------|
d-------------------------------------------------------------|
a-2-2-2-2-2-2-2-4-5-5-5-5-5-5-5-5-----------------------------|
e---------------------------------5-5-7-7-5-5-8-8-8-8-8-8-8-8-|

Chorus: it goes something like this ok.
g-------------------------------------------------------------------|
d---------------------------------------7-------7-------------------|
a-9-9-9-9-9-9-9-9-----------------5-7-8---5-7-8----------8-------8--|
e-----------------9-9-9-9-9-9-9-9------------------6-8-9---6-8-9----| (x2)

Intro (x4)

Verse

Chorus

Intro (x4)

G/solo:
g---------------|
d---------------|
a-7-5-----------|
e-----5-7-6-5---| Repeat as needed

Intro a few times

Verse

Chorus

Intro as many times as needed.

manumick20@yahoo.com
Другие песни: