The Living EndIve Just Seen A Face Текст

0 Голосов
-THE LIVING END-

I`ve Just Seen A Face
Originally By The Beatles

Tabbed By Michael Fryar-manumick20@yahoo.com

I think this is how Chris stums these chords. I hope so..haha.
I think I have the strumming right
but you just gotta play it fast....just play it the way it feels right

h=hammer on
p= pull offf
^=bend
v=bring bend back down with no strumming of the note or notes
s=slife
x-dead noteIntro:

G
e----3--3------|
b----3---------|
g----0---------|
d----0------(x8)
a----2----2----|
e-3--3----3----|
Verse:

G Em
e----3--3--------3--3-------------------------0--0-------------|
b----3-----------3----------------------------0----------------|
g----0-----------0----------------------------0----------------|
d----0-----------0--------(x2)----------------2----------(x4)--|
a----2----2------2-----2----------------------2----2-----------|
e-3--3----3---3--3-----3-------------------0--0----0---0-------|

C D G
e--0-0-0-0-2-2-2------2---|
b--1-1-1-1-3-3-3------2---|
g--0-0-0-0-2-2-2------0---|(repeat all again)
d--2-2-2-2-0-0-0------0---|
a--3-3-3-3------------2---|
e------------------3--3---|


Chorus:

D C G C G
e-2-2-2-2-2-2-2-2--0-0-0-0-0-0-0-0--2-2-2-2--0-0-0-0--2-2-2-2-2-2-2-2--|
b-3-3-3-3-3-3-3-3--1-1-1-1-1-1-1-1--2-2-2-2--1-1-1-1--2-2-2-2-2-2-2-2--|
g-2-2-2-2-2-2-2-2--0-0-0-0-0-0-0-0--0-0-0-0--0-0-0-0--0-0-0-0-0-0-0-0--|
d-0-0-0-0-0-0-0-0--2-2-2-2-2-2-2-2--0-0-0-0--2-2-2-2--0-0-0-0-0-0-0-0--|(x2)
a------------------3-3-3-3-3-3-3-3--2-2-2-2--3-3-3-3--2-2-2-2-2-2-2-2--|
e-----------------------------------3-3-3-3-----------3-3-3-3-3-3-3-3--|

Verse (but only once)

Chorus

Solo:


e-----------------------------------------:-----------------------------------:-|
b---------------------------------5p3--1--:------------------7h8p7----7-10s12-:-|
g---0--2-2p0--0-0--4-4p2--0-0--5--5p4--2--:--------9-7---7-9--------9---------:-|
d-0---------------------------------------:------9-----9----------------------:-|
a-----------------------------------------:-7-10------------------------------:-|
e-----------------------------------------:-----------------------------------:-|e-12--10----------------:--------12----12--------------14----------------------------:-|
b--------s10-8-10^v-8---:-----13----13----13--------15----15-x-15^--15^--15^--15^----:-|
g---------------------9-:--12----------------12--14----------x-15^--15^--15^--15^----:-|
d-----------------------:---------------------------------------------------------17-:-|
a-----------------------:------------------------------------------------------------:-|
e-----------------------:------------------------------------------------------------:-|


sweep
e---------------------------------------------------:----------0-----7---12-14-15-----:-|
b---------------------------------------------------:----------0----8-----------------:-|
g---------------------------------------------------:----------0---9--------------12s-:-|
d-17-17-17p15--------15-----------------------------:---------------------------------:-|
a--------------17-15----17p15-13--------15p13----13-:---------------------------------:-|
e--------------------------------15-15--------15----:-s12--0--------------------------:-|e-------15--------------------------------------------------------------------|
b---15^-----15^v-13----13-----------------------------------------------------|
g-------------------14-----dont play this note just slide from it-14s12-------|
d-s---------------------------------------------------------------------14----|
a--------------------------------------------------------------------------15-|
e-----------------------------------------------------------------------------|


e--------------------------12-|
b-------10-12-10--------12----|
g----11--------------12-------|
d-12--------------------------|
a-----------------------------|
e-----------------------------|Chorus (keep repeating until end)

also in the last chorus run down tehe lead guitar playssomething like this, not sure
if its right though but its something in that damn scale:

G
e-12-15p12-11p12---------------------------------2--|
b----------------12-15p12-11p12------------------2--|
g--------------------------------14p12-------12--0--|
d--------------------------------------14p12-----0--|
a------------------------------------------------2--|
e------------------------------------------------3--|
Другие песни: