The Living EndHomestead Текст

0 Голосов
-THE LIVING END-

Homestead

Tabbed by Michael Fryar
manumick20@yahoo.com

h= hammer on
p= pull off
^=full bend
v=bring bend back down making it sound noticed


Ok in this song in some bits there are 2 different guitar bits.
For those certain sections I`ll writting out the dubbed guitar parts.


Intro:

G#m
e--4-4-4-4-4-4-4-4-4-4-4--|
b--4-4-4-4-4-4-4-4-4-4-4--|
g--4-4-4-4-4-4-4-4-4-4-4--|
d--6-6-6-6-6-6-6-6-6-6-6--|
a--6-6-6-6-6-6-6-6-6-6-6--|
e--4-4-4-4-4-4-4-4-4-4-4--|


Verse:

Guitar 1 G#m G#m,maj7 E Em
e---------4-4-4-4--:--4-4-4-4---:--0-0-0-0--:--0-0-0-0--|
b---------4-4-4-4--:--4-4-4-4---:--0-0-0-0--:--0-0-0-0--|
g---------4-4-4-4--:--4-4-4-4---:--1-1-1-1--:--0-0-0-0--|
d---------6-6-6-6--:--5-5-5-5---:--2-2-2-2--:--2-2-2-2--|
a---------6-6-6-6--:--6-6-6-6---:--2-2-2-2--:--2-2-2-2--|
e---------4-4-4-4--:--4-4-4-4---:--0-0-0-0--:--0-0-0-0--|

Guitar 2 (G#m) (G#m,maj7) (E maj7) (Em maj7)
e------------------:------------:-----------:-----------|
b-------------4----:------4-----:------4----:------4----|
g-----------4---4--:----4---4---:----4---4--:----0---0--|
d---------6--------:--5---------:--2--------:--2--------|
a------------------:------------:-----------:-----------|
e------------------:------------:-----------:-----------|

B D E B D E
e---------------------------------------------------|
b--4-5-4---------------------4-5-4------------------|
g--4-4-4---7-7-7--9-9-9------4-4-4---7-7-7--9-9-9---|
d----------7-7-7--9-9-9--------------7-7-7--9-9-9---| repeat all again
a----------5-5-5--7-7-7--------------5-5-5--7-7-7---|
e---------------------------------------------------|


Chorus:

A D A D B E B E
e---------------------------------------------------------------------------------|
b----2------------3-----2-----------3----------4------------5-----4------------5--|
g------2--------2---------2-------2--------------4--------4---------4--------4----|
d--------2--2h4-------------2-2h4------------------4--4h6-------------4--4h6------|
a-0-----------------0----------------------2--------------------2-----------------|
e---------------------------------------------------------------------------------|

A D A D A
e---------------------------------------------------------------------------------|
b----2------------3----2-----------3----------------------------------------------|
g------2--------2--------2-------2-----2-2-2-----2-2-2------2-2-2------2-2-2------|
d--------2--2h4------------2-2h4-------2-2-2-----2-2-2------2-2-2------2-2-2------|
a-0-----------------0------------------0-0-0-----0-0-0------0-0-0------0-0-0------|
e--------------------------------------------3p0-------3p0--------3p0--------3p0--|

Verse(only once though)

Chorus


Bridge1:

D A G D B E B
e--2-2-2-2-2-2-2--------------------------------:----------------0--------------|
b--3-3-3-3-3-3-3----------3-3-3--3-3-3-3-3------:---------------0---------------|
g--2-2-2-2-2-2-2---2-2-2--0-0-0--2-2-2-2-2-(x2)-:-4--4-4-------1--------4--4-4--|
d--0-0-0-0-0-0-0---2-2-2--0-0-0--0-0-0-0-0------:-4--4-4------2----(x3)-4--4-4--|
a------------------0-0-0--x-x-x-----------------:-2--2-2-----2----------2--2-2--|
e-------------------------3-3-3-----------------:----------0--------------------|
we`d like you...


Solo: (parts for guitars 1 and 2 are correctly set out for timing)
(B)
e---------0----2p0---4p0-------------11--9--7-7------|
b-----0h2----0-----p-----0--2p0-----------------(x2)-|
g-------------------------------s11--11--9--8-8------|
d----------------------------------------------------|
a----------------------------------------------------|
e----------------------------------------------------|

Guitar 1 G#m E G#m
e------------------------------------------------------------------------------|
b------------------------------------------------------------------------------|
g------------------------------------------------------------------------------|
d--13-13-11--9-9--------------13-13-11--9-9---------------13-13-11--9-9--------|
a------------------------------------------------------------------------------|
e------------------------------------------------------------------------------|

Guitar 2
e------------------16----16-------------------16----16--------------------16----16----|
b-------------------------------------------------------------------------------------|
g---------------13----13----13-------------13----13----13--------------13----13----13-|
d-------------------------------------------------------------------------------------|
a-------------------------------------------------------------------------------------|
e-------------------------------------------------------------------------------------|

Guitar 1 E Eb
e------------------------------------------------------------------------------|
b------------------------------------------------------------------------------|
g------------------------------------------------------------------------------|
d----13-13-11--9-9-----------------13-13-13--14-13--------------13-13-13-14-13-|
a------------------------------------------------------------------------------|
e------------------------------------------------------------------------------|

Guitar 2
e--------------------16----16-----------------------16----16----16----16----16----|
b---------------------------------------------------------------------------------|
g-----------------13----13----13-----------------13----13----13----13----13----13-|
d---------------------------------------------------------------------------------|
a---------------------------------------------------------------------------------|
e---------------------------------------------------------------------------------|


e--------------------------------------------------------------------------------|
b-----------------------------4h5p4---------------4------------------------------|
g--------------------6------4-------6-4-------4-6---6-4-6------------------------|
d--8^v-6-------6-8-9---5--4-------------6-6-6-------------5-5--4^v (half bend)-2-|
a--------6-7-9-------------------------------------------------------------------|
e--------------------------------------------------------------------------------|

B D E
e-----------------------|
b--4-5-4----------------|
g--4-4-4---7-7-7--9-9-9-|
d----------7-7-7--9-9-9-|
a----------5-5-5--7-7-7-|
e-----------------------|

[ sweep ] [sweep.....]
e------------7--11p7-------------11-14-14-11--------------------------------------------------------|
b----------9---------9--------12-------------12-----------------------------------------------------|
g--11^---9-------------8---13-------------------13-----------------------0---0---0----0-------------|
d--------------------------------------------------14---13^v-11-9-7-5--5---7---9---11---13^(half)-v-|
a---------------------------------------------------------------------------------------------------|
e---------------------------------------------------------------------------------------------------|

Chorus

Bridge2: Strum these chords as much as needed, some more than others)

D Dmaj7 D6 Dmaj7 C sus 2 C C sus 2
e-----2----2----2----2----------------------------------|
b-----3----2----0----2---(x2)--3----3----1----1----3----|
g-----2----2----2----2---------0----0----0----0----0----|
d-----0----0----0----0---------2----2----2----2----2----|
a------------------------------3----3----3----3----3----|
e-------------------------------------------------------|
we`d like you..

A sus 4 A B
e------------------------------------------------------------------------------|
b----3----3----2----2----2----------------------------------------------------------|
g----2----2----2----2----2----4------------------------------------------------------|
d----2----2----2----2----2----4------------------------------------------------------|
a----0----0----0----0----0----2------------------------------------------------------|
e------------------------------------------------------------------------------|

Outro:


B D E B D E B D Db
e-------------------------------------------------------------------------|
b--4-5-4---------------------4-5-4-------------------4-5-6----------------|
g--4-4-4---7-7-7--9-9-9------4-4-4---7-7-7--9-9-9----4-4-4--7-7-7--6-6-6--|
d----------7-7-7--9-9-9--------------7-7-7--9-9-9-----------7-7-7--6-6-6--|
a----------5-5-5--7-7-7--------------5-5-5--7-7-7-----------5-5-5--4-4-4--|
e-------------------------------------------------------------------------|

begin to fade out
Guitar 1 G#m G#m,maj7 E Em
e---------4-4-4-4--:--4-4-4-4---:--0-0-0-0--:--0-0-0-0--|
b---------4-4-4-4--:--4-4-4-4---:--0-0-0-0--:--0-0-0-0--|
g---------4-4-4-4--:--4-4-4-4---:--1-1-1-1--:--0-0-0-0--|
d---------6-6-6-6--:--5-5-5-5---:--2-2-2-2--:--2-2-2-2--|
a---------6-6-6-6--:--6-6-6-6---:--2-2-2-2--:--2-2-2-2--|
e---------4-4-4-4--:--4-4-4-4---:--0-0-0-0--:--0-0-0-0--|

Guitar 2 (G#m) (G#m,maj7) (E maj7) (Em maj7)
e------------------:------------:-----------:-----------|
b-------------4----:------4-----:------4----:------4----|
g-----------4---4--:----4---4---:----4---4--:----0---0--|
d---------6--------:--5---------:--2--------:--2--------|
a------------------:------------:-----------:-----------|
e------------------:------------:-----------:-----------|
Другие песни: