The Living EndDirty Man Текст

0 Голосов
-THE LIVING END-

Dirty Man

Transcribed By Michael Fryar
manumick20@yahoo.com

^=bend


Intro:


e-----------------------------|
b----------5-5-----------5-5--|
g------4-4-----------4-4------|
d--2-2-----------2-2----------|repeat as needed
a-----------------------------|
e-----------------------------|


Verse:

A
e---------------------------------|
b---------------------------------|
g--2-2--6--2--2-2-2--6--2-2-2--6--|
d--2-2-----2--2-2-2-----2-2-2-----|
a--0-0-----0--0-0-0-----0-0-0-----|
e---------------------------------|
/ p a l m m u t e d.........

C#
e----------------------|
b----------------------|
g--6-6--6-6--6-6--6-6--|
d--6-6--6-6--6-6--6-6--|(x2) (thats both sections)
a--4-4--4-4--4-4--4-4--|
e----------------------|


Pre Chorus:

D A A F# D A E F# D
e-----------------------------------------------2-|
b-----------------------------------------------3-|
g-7-7-7--------2-2-2----------7-7-7---------2---2-|
d-7-7-7-7-7-7--2-2-2--4-4-4---7-7-7--7-7-7--2-4-0-|
a-5-5-5-7-7-7--0-0-0--4-4-4---5-5-5--7-7-7--0-4---|
e-------5-5-5---------2-2-2----------5-5-5----2---|

B E B E C
e----------------------------------0------------|
b----------------------------------1------------|
g-4-4-4-4---------4-4-4-4----------0------------|
d-4-4-4-4-2-2-2-2-4-4-4-4-2-2-2-2--2------------|
a-2-2-2-2-2-2-2-2-2-2-2-2-2-2-2-2--3-let ring...|
e---------0-0-0-0---------0-0-0-0---------------|



Chorus:

C G A E F G
e-------3-3--0-0--0-0--1-1----1-1--3-3-3-3-3--|
b-------0-0--1-1--0-0--1-1---1--1--0-0-0-0-0--|
g--5-5--0-0--2-2--0-0--2-2--2---2--0-0-0-0-0--|
d--5-5--x-x--2-2--2-2--3-3-3----3--x-x-x-x-x--|(x2)
a--3-3--2-2--0-0--2-2--------------2-2-2-2-2--|
e-------3-3-------0-0--------------3-3-3-3-3--|

C G F
e-----------------|
b-----------------|
g-5-5-------------|
d-5-5--5-5--3-3-3-|
a-3-3--5-5--3-3-3-|
e------3-3--1-1-1-|


C
e-0-0-0-0-0-0-0-0-0-0-|
b-5-5-5-5-5-5-5-5-5-5-|
g-5-5-5-5-5-5-5-5-5-5-|
d-5-5-5-5-5-5-5-5-5-5-|Strum C Chord as
a-3-3-3-3-3-3-3-3-3-3-|much as needed
e---------------------|

Cm
e-3-3-3-3-3-3-3-3-3-3-3-3-3-3-3-3--|
b-4-4-4-4-4-4-4-4-4-4-4-4-4-4-4-4--|
g-5-5-5-5-5-5-5-5-5-5-5-5-5-5-5-5--|
d-5-5-5-5-5-5-5-5-5-5-5-5-5-5-5-5--|
a-3-3-3-3-3-3-3-3-3-3-3-3-3-3-3-3--|
e----------------------------------|

Intro

Verse

Pre Chorus

Chorus

Solo:
e---------------------------------------|
b---------------------------------------|
g--3-5^--3-5^--3-5^--3-5^--3-5-5-5------|
d--3-5^--3-5^--3-5^--3-5^--3-5-5-5-(x4)-|
a---------------------------------------|
e---------------------------------------|

e------------------------------|
b------------------------------|
g-5-5-5-5-5-5-5--9-9-9-9-9-9-9-|
d-3-3-3-3-3-3-3--7-7-7-7-7-7-7-|
a------------------------------|
e------------------------------|

e-----------------------------------|
b-----------------------------------|
g--3-5^--3-5^--3-5^--3-5^--3-5-5-5--|
d--3-5^--3-5^--3-5^--3-5^--3-5-5-5--|
a-----------------------------------|
e-----------------------------------|

e-------------------------------------------------------|
b-------------------------------------------------------|
g-5-5-5-5-5-5-5--9-9-9-9-9-9-9-5-5--3-5--3-5--3-5--3-5-5|
d-3-3-3-3-3-3-3--7-7-7-7-7-7-7-5-5--3-5--3-5--3-5--3-5-5|
a-------------------------------------------------------|
e-------------------------------------------------------|

e-------------------------|
b-------------------------|
g-3-5^--3-5^--3-5^--3-5^-5|
d-3-5^--3-5^--3-5^--3-5^-5|
a-------------------------|
e-------------------------|



Bridge:

D E A G# F#m
e---------------------------------2--|
b--------3---------5-------------2---|
g-----2---------4-------2--2----2----|
d--0---------2----------2--2--4------|
a-----------------------0--0--4------|
e--------------------------4--2------|


B E B E B Bm
e------------------------------0--3--|
b------------------------------5--4--|
g--4-4-4-4-------4-4-4-4-------5--5--|
d--4-4-4-4-2--2--4-4-4-4-2--2--5--5--|
a--2-2-2-2-2--2--2-2-2-2-2--2--3--3--|
e----------0--0----------0--0--------|

Chorus


Outro:

C B BbA G F#F Em
e-----------------------------0------------x-|
b-----------------------------0------------x-|
g--5---5---5---5-4-3-2--------0------------x-|
d--5---5---5---5-4-3-2-5-4-3--2------------x-|
a--3---3---3---3-2-1-0-5-4-3--2-fade out...x-|
e----------------------3-2-1--0------------x-|

Tabbed By Mike Fryar,
manumick20@yahoo.com
Icq-67053832
Другие песни: