The Living EndBlood On Your Hands Текст

0 Голосов
-THE LIVING END-

Blood On Your Hands
Tabbed By Michael Fryar
mаnumiск20@yahoo.com


()=harmonic



Intro:

e-----------------------|
b-----------------------|
g-----------------------|
d-----------------------|
a-----------------------|
e--p i c к s l i d e s--|


e-x-x-x-------------(12)---|
b-x-x-x-------------(12)---|
g-x-x-x-------=-----(12)---|
d-x-x-x-------------(12)---|
a-x-x-x-------------(12)---|ect
e-x-x-xect----------(12)---|


e---------------------|
b---------------------|
g---------------------|
d---------------------|
a---------------------|
e--p i c к s l i d e--|

followed by:
e----------0--5--0------5-s----8---------|
b--------1-------------5---------10-8-10-|
g------2------------s-5----s-9-----------|
d----2-----------------------------------|
a--0-------------------------------------|
e----------------------------------------|


e-----------------|
b-----------------|
g---7~7-5---------|
d---------7-5-7---|
a-----------------|
e-----------------|



Verse:

Am Em
e--------0-------7-7---------0---0--7-7----------|
b------1---1-----8-8-------1---4----8-8----------|
g----2-------2---9-9-----2----------9-9-repeat as|
d----------------9-9----------------9-9--needed--|
a--0-------------7-7---0------------7-7----------|
e------------------------------------------------|
/ p a l m m u t e d................


E Eb D repeat D as needed
e--7-6-5-5-5-5-5--|
b--8-7-6-6-6-6-6--|
g--9-8-7-7-7-7-7--|
d--9-8-7-7-7-7-7--|
a--7-6-5-5-5-5-5--|
e-----------------|


e--------0------7-7-----|
b------1---1----8-8-----|
g----2-------2--9-9-9---|
d---------------9-9-9---|
a--0------------7-7-7---|
e-----------------------|



Pre Chorus:

G C G C G C A
e-------------------------|
b-------------------------|
g-----5-----5-----5-------|
d--5--5--5--5--5--5--7-7--|
a--5--3--5--3--5--3--7-7--|
e--3-----3-----3-----5-5--|



Chorus:

D A# A G
e--2-2-2-2-2-2-2-2------------------2-2-2-2-2-2-2-2-|
b--3-3-3-3-3-3-3-3------------------2-2-2-2-2-2-2-2-|
g--2-2-2-2-2-2-2-2--3-3-3-3-3-3-3-2-0-0-0-0-0-0-0-0-|
d--0-0-0-0-0-0-0-0--3-3-3-3-3-3-3-2-x-x-x-x-x-x-x-x-|
a-------------------1-1-1-1-1-1-1-0-2-2-2-2-2-2-2-2-|
e-----------------------------------3-3-3-3-3-3-3-3-|

C A C D
e-------------------------------------2--|
b-------------------------------------3--|
g-5-5-5-5-5-5--2-2-2--5-5-5-----------2--|
d-5-5-5-5-5-5--2-2-2--5-5-5-(all x2)--0--|
a-3-3-3-3-3-3--0-0-0--3-3-3--------------|
e----------------------------------------|
/ p a l m m u t e d....

Verse


Pre Chorus


Chorus



Solo:

D Am A#m5 Am G Am
e-----------------5----5---5---7---9--|
b-----------------5----6---5---8--10--|
g-----------------5----5---5---7---9--|
d--7--8--9--10------------------------|
a--5--5--5--5-------------------------|
e-----------------5----5---5----------|



Bridge:

e----------------------------------------------------|
b----------------------------------------------------|
g-7-7-7-7-7-7-7-7---6-6-6-6-6-6-6-6---5-5-5-5-5-5-5-5|
d-7-7-7-7-7-7-7-7---7-7-7-7-7-7-7-7---7-7-7-7-7-7-7-7|
a-5-5-5-5-5-5-5-5---5-5-5-5-5-5-5-5---5-5-5-5-5-5-5-5|
e----------------------------------------------------|


e-------------------------------------------|
b-------------------------------------------|
g------------8-8-8-8-8-8-8-8--9-9-9-9-9-----|
d-5-5-5-5----8-8-8-8-8-8-8-8--9-9-9-9-9-----|
a-5-5-5-5----6-6-6-6-6-6-6-6--7-7-7-7-7ect--|
e-3-3-3-3ect--------------------------------|

e-----------------------------------------------|
b-----------------------------------------------|
g-5---5-6---6-7---7-6---5-5--5-5--5-5--5-5-6-6--|
d-7---7-7---7-7---7-7---7-7--7-7--7-7--7-7-7-7--|
a-5---5-5---5-5---5-5---5-5--5-5--5-5--5-5-5-5--|
e-----------------------------------------------|


e------------------------------------------------------|
b------------------------------------------------------|
g-6-6--6-6--6-6-7-7--7-7--7-7--7-7--8-8--8-8--8-8--8-8-|
d-7-7--7-7--7-7-7-7--7-7--7-7--7-7--7-7--7-7--7-7--7-7-|
a-5-5--5-5--5-5-5-5--5-5--5-5--5-5--5-5--5-5--5-5--5-5-|
e------------------------------------------------------|


Chorus


Outro:


over chords: (I тнinк)
e-1--1--1-----------------------------------------5-|
b-3--2--1---------------------6-5-6-5-6-5-6-5-6-5---|
g-2--2--2--dubbed over with-------------------------|
d---------------------------------------------------|
a---------------------------------------------------|
e---------------------------------------------------|


e--------------------------------------------------------------|
b---------------------5----------------------3reapeat as needed|
g-6-5-6-5-6-5-6-5-6-5----5-4-5-4-5-4-5-4-5-4-------------------|
d--------------------------------------------------------------|
a--------------------------------------------------------------|
e--------------------------------------------------------------|


End:

E
e---|
b---|
g-9-|
d-9-|
a-7-|
e---|
Другие песни: