The Living EndAll Torn Down Текст

0 Голосов
Song : All Torn Down

Band : The Living End
Album : The Living End
Tabber: Faizal aka M@NI@C


Intro [starts after guitar palm mute]/Ending
------------------
------------------
-5-5--------------
----6-65-555-5----

Pre-Verse/Verse
------------------------------------
---------------3--------------------
-355-355-355-35-5---------------35--
------------------566-566-566-56----

Pre-Chorus
------------------
------------------
------------------
-1-1-1-11-55555---

Chorus
----------------------
----------------------
-------------8-8-8-88-
-6-6-6-8-8-8----------

Post-Chorus
-----------------------
-----------------------
-------------5-5-5-55--
-6-6-6-8-8-8-----------

Figure out the squence and the number of time each riff is played yourself.
Any comments mail me at spore_skate@hotmail.com
-enjoi-
Другие песни: