The DoorsThe Wasp Текст, аккорды

0 Голосов
Main riff:
G|---------------|--------------------------------------|
D|---------------|---------56-------------067-----------|
A|------057------|077557755-------07755775----077557755-|
E|0-0-0----0-0-0-|-----------0-0-0----------------------|

Chorus:
G|-------------------------------|
D|55--55--555054330765-----------|
A|--77--77------------7-057------|
E|-------------------------0-0-0-|
Другие песни: