The DoorsNot To Touch The Earth (bass) Текст

0 Голосов
Intro riff verse riff:
G|----------------|7---7---9---9---|
D|--7---7---7---7-|--7---7---7---7-|
A|5---5---7---7---|----------------|
E|----------------|----------------|

"run with me run with me..."
(x4) (x4) (x4)
G|--3-7-3-|--1-5-1-|--3-7-3-|
D|5-------|3-------|5-------|
A|--------|--------|--------|
E|--------|--------|--------|

"the mansion is
warm at the..." riff
G|----------------|
D|--9---9---9---9-|
A|7---7---9---9---|
E|----------------|

"dead president's
corpse..." riff
G|/7---/7---|
D|---9----9-|
A|----------|
E|----------|

"run with me run with me..."
(x4) (x4) (x4)
G|--5-9-5-|--3-7-3-|--5-9-5-|
D|7-------|5-------|7-------|
A|--------|--------|--------|
E|--------|--------|--------|

second verse riff
G|--5---5---5---5-|
D|3---3---5---5---|
A|----------------|
E|----------------|

I am the Lizard King
I can do anything
Другие песни: