The DoorsLand Ho (bass) Текст

0 Голосов
Verse riff chorus:
G|------------|-----------------------------------------------------------|
D|---99-77-44-|----------99-77-44-----------------------------------------|
A|55----------|3-330--55----------3-330-----------------------------------|
E|------------|--------------------------33333333222222220000000055332200-|

"I've got three ships.." riff
G|----------------|
D|-9-9-9-9-7-7-7-7|
A|7-7-7-7-5-5-5-5-|
E|----------------|
Другие песни: