The DoorsIndian Summer (bass) Текст, аккорды

0 Голосов
Verse riff:
G|----7---7-|
D|---7---7--|
A|9-----9---|
E|----------|

"and I'll wait in the summer.."
G|---------------7-7--7-7-----------------------|
D|---7---7------7--------79---7---7------7-79---| <--we'll call this the chorus
A|7-9--89--7--9---9-5--9---7-9--89--7-7-9----5--|
E|----------------------------------------------|

Solo:
G|--7------7------7------7-------7------7-------7-------7-----| play chorus
D|-----79-----79-----79----7-79-----79----7-79----7-79----7-79| again after
A|5--9---5--9---5--9---5--9----5--9---5--9----5--9----5--9----| solo
E|------------------------------------------------------------|

Outro:
G|---7---7----7---7----|
D|--7---7----7---7-----|
A|9----9---9----9--5---|
E|---------------------|
Другие песни: