The DoorsGo Insane Текст, аккорды

0 Голосов
Verse/Chorus:
G|--------------------|---------------------------------------------57----|
D|--------------------|--------------4-------4-------4-776655----457--7---|
A|--------------------|77777777--4477-7--4477-7--4477-7------7755------55-|
E|5-535-535-535-535-53|--------55------55------55-------------------------|

E|--------------------------------------------------------|--------|
B|457---------4-------754---55-543--33---------754--------|------4-|
G|--------447--7--447-----77--7---55--5321--447---77777777|--4477-7|
D|---87655------55------------------------55--------------|55------|
Другие песни: