The CranberriesThem Текст

0 Голосов
e:---2-2-------2-2-------2-2-------2-2----------------
B:--3---3-----3---3-----3---3-----3---3---------------
G:-4-----4---4-----4---2-----2---2-----2--------------
D:4-------4-4-------4-0-------0-0-------0-------------
A:----------------------------------------------------
E:----------------------------------------------------


e:---5-5-------5-5-------2-2-------2-2----------------
B:--3---3-----3---3-----3---3-----3---3---------------
G:-0-----0---0-----0---2-----2---2-----2--------------
D:0-------0-0-------0-0-------0-0-------0-------------
A:----------------------------------------------------
E:----------------------------------------------------

I think it's in 4/4, but I could be wrong


Bm
Don't
D
listen to what they say
make up your mind?
D
walk away

Bm
don't even
D
give them the time of day
they put you wrong?
D
turn away

Bm
so why
D
do they all just walk away?
there was something wrong?
D
they didn't want to stay

Bm
why...
D
did they listen to someone else?
I did something wrong?
D
Um, I have no idea waht this line is

that attitude This part is a
they all got that attitide little different.
that attitude It's a rough
they all got that ah-.... electric sound

Don't
listen to what they say Same old riff
make up your mind
walk away

Won't " "
ever happene again
they've all gone wrong
gone insane (?)

that's why " "
they all just walked away
there was nothing wrong
they didn't want to stay

that's why " "
they listened to someone else
I did nothing wrong
nothing... Again, I just don't know


That's why... " "
That's why...
That's why...
That's why...
Другие песни: